Oops, an error
Loading. Please wait.

Take Me Away Tab

version 1
version 1

Whole song

Interactive

13,269 views 21 this week
3 commentsread comments
1 2 3 4 5
accurate
x 8
add to favorites
launch autoscroll
font size
0
reset
how to read this tab
guitar tuner
Autoscroll
slow
fast
+/-
esc
set tempo
stop
Help us to improve Ultimate-Guitar.com Take our survey!
×
-= Avril Lavigne - Take Me Away =-
-= Tabbed by Andy - c_baoth@hotmail.com =-

Tuning - Drop D  (DAdGBe)

This is the main riff, played in the intro and the first two lines
of every verse:

                                             Clean
e |----------------------------------------------|
B |----------------------------------------------|
G |-----------------------------0----------------|
d |-------5----------4--------2---------5-----4--|
A |-----2------2---0------0-0-------0-3----------|
D |---2----------0--------------------------0----|


This is the second half of the verses, leading up to the chorus:


                                        Mild Dist.
PM..  / / / /   / / / /     / / /   /     /
e |----------------------------------------------|
B |----------------------------------------------|
G |-----------------------2-2-2-2---5-5----------|
d |---2-2-2-2---0-0-0-0---2-2-2-2---5-5---0-0----|
A |---2-2-2-2---0-0-0-0---0-0-0-0---3-3---0-0----|
D |---2-2-2-2---0-0-0-0-------------------0-0----|

PM..  / / / /   / / / /     / / /   / / /     / / /   /
e |----------------------------------------------------------|
B |----------------------------------------------------------|
G |-----------------------2-2-2-2-2-2-2-2---5-5-5-5-5-5---5--|
d |---2-2-2-2---0-0-0-0---2-2-2-2-2-2-2-2---5-5-5-5-5-5---5--|
A |---2-2-2-2---0-0-0-0---0-0-0-0-0-0-0-0---3-3-3-3-3-3-5-3--|
D |---2-2-2-2---0-0-0-0--------------------------------------|


And then the chorus:

                                                       Heavy
e |--------------------------------------------------------|
B |--------------------------------------------------------|
G |---------5-5----------------------5-5---------2-2-2-2---|
d |---2-2---5-5---0-0-0-0------2-2---5-5---0-0---2-2-2-2---|
A |---2-2---3-3---0-0-0-0------2-2---3-3---0-0---0-0-0-0---|
D |---2-2---------0-0-0-0------2-2---------0-0-------------|

e |------------------------------------------------------------------------|
B |------------------------------------------------------------------------|
G |-------------5-5-5-5---------------------------------5-5-5-5------------|
d |---2-2-2-2---5-5-5-5---0-0-0-0-0-0-0-0-----2-2-2-2---5-5-5-5---0-0-0-0--|
A |---2-2-2-2---3-3-3-3---0-0-0-0-0-0-0-0-----2-2-2-2---3-3-3-3---0-0-0-0--|
D |---2-2-2-2-------------0-0-0-0-0-0-0-0-----2-2-2-2-------------0-0-0-0--|


The bridge leading up to the last chorus.  There's not really much guitar in
this part, it's mostly bass and some synth.  However, the chords are transcribed
below.

PM..                 / / / / / / / / / / / / / / / /
e |---------------------------------------------------|
B |---------------------------------------------------|
G |---5---------5-------------------------------------|
d |---5----2----5----0-0-0-0-0-0-0-0-0-0-0-0-0-0-0-0--|
A |---3----2----3----0-0-0-0-0-0-0-0-0-0-0-0-0-0-0-0--|
D |--------2---------0-0-0-0-0-0-0-0-0-0-0-0-0-0-0-0--|

The rest of the song is simply the chorus played over and over.  The song ends with the following outro:

e |---------------------------------------------|
B |---------------------------------------------|
G |---------------------------------------------|
d |---2-2-2-2---5-5-5-5---0-0-0-0-0-0-0-0---2---|
A |---2-2-2-2---5-5-5-5---0-0-0-0-0-0-0-0---2---|
D |---2-2-2-2---5-5-5-5---0-0-0-0-0-0-0-0---2---|
Suggest correction
What's this?
You can suggest a correction to this tab. Community and Mods will review your correction and vote to approve or reject it.
comments
print report bad tab
3 comments total.
0 reply
elix997 410 wrote on June 30 2004, 12:00 am

very nice *** ^^

0 reply
elix997 410 wrote on June 30 2004, 12:00 am

very nice stuff ^^ *

0 reply
jose_alfonso_9 11 wrote on November 13 2015, 08:51 pm

Thanks! *-*

guest
You may want to rate the tab now too:
select rating
Please do not post tabs as comments. Select "correction" instead!