Oops, an error
Loading. Please wait.

Take Me Away Tab

version 2
version 2

Whole song

Interactive

3,596 views 1 this week
no commentswrite comment
1 2 3 4 5
please rate
add to favorites
launch autoscroll
font size
0
reset
how to read this tab
guitar tuner
Autoscroll
slow
fast
+/-
esc
set tempo
stop
Help us to improve Ultimate-Guitar.com Take our survey!
×
Author
Intro 

e |-------------------------------------------------|
B |-------------------------------------------------|
G |-----------------------------0---0---------------|
D |-------5---5------4---4----2---2------5----4-----| x4
A |-----2---2------0---0----0----------3------------|
E |---0----------0--------------------------0-------|

Verse (Palm Muted)                                             
                                                               
e |------------------------------------------|                    
B |------------------------------------------|                  
G |-----------7-------2-------5--------------|                   
D |---2-------7--x4---2--x4---5--x2---5------|                  
A |---2--x4---5-------0-------3-------5--x2--|   
E |---0-------------------------------3------|
           
e |----------------------------------|    
B |----------------------------------|    
G |-----------7-------2-------5------|    
D |---2-------7--x4---2--x8---5--x8--|    
A |---2--x4---5-------0-------3------|     
E |---0------------------------------|    
                                                                 
Chorus

e |----------------------------------------------------------|
B |----------------------------------------------------------|
G |-----------5-------7---------------5-------7--------------|
D |---2-------5--x2---7--x8---2-------5--x2---7--x5---7------|
A |---2--x2---3-------5-------2--x2---3-------5-------7--x3--|
E |---0-----------------------0-----------------------5------|


e |--------------------------------------------------|
B |--------------------------------------------------|
G |-----------5-------7---------------5-------7------|
D |---2-------5--x4---7--x8---2-------5--x4---7--x4--|
A |---2--x4---3-------5-------2--x4---3-------5------|
E |---0-----------------------0----------------------|


e |-------------------------------------------------|
B |-------------------------------------------------|
G |-----------------------------0---0---------------|
D |-------5---5------4---4----2---2------5----4-----| x3
A |-----2---2------0---0----0----------3------------|
E |---0----------0--------------------------0-------|

Verse (Palm Muted)                                             
                                                               
e |------------------------------------------|                    
B |------------------------------------------|                  
G |-----------7-------2-------5--------------|                   
D |---2-------7--x4---2--x4---5--x2---5------|                  
A |---2--x4---5-------0-------3-------5--x2--|                  
E |---0-------------------------------3------|                  
                                                               
e |-----------------------------------|    
B |-----------------------------------|    
G |-----------7-------2-------5-------|    
D |---2-------7--x4---2--x8---5--x16--|    
A |---2--x4---5-------0-------3-------|     
E |---0-------------------------------| 
                                                                         
Chorus

e |----------------------------------------------------------|
B |----------------------------------------------------------|
G |-----------5-------7---------------5-------7--------------|
D |---2-------5--x2---7--x8---2-------5--x2---7--x5---7------|
A |---2--x2---3-------5-------2--x2---3-------5-------7--x3--|
E |---0-----------------------0-----------------------5------|


e |--------------------------------------------------|
B |--------------------------------------------------|
G |-----------5-------7---------------5-------7------|
D |---2-------5--x4---7--x8---2-------5--x4---7--x4--|
A |---2--x4---3-------5-------2--x4---3-------5------|
E |---0-----------------------0----------------------|

Bridge

e |-----------------------------------------------|
B |-----------------------------------------------|
G |---7--------5-----------------5--------7-------|
D |---7--x12---5--x16---2--------5--x16---7--x14--|
A |---5--------3--------2--x16---3--------5-------|
E |---------------------0-------------------------|

Chorus

e |----------------------------------------------------------|
B |----------------------------------------------------------|
G |-----------5-------7---------------5-------7--------------|
D |---2-------5--x2---7--x8---2-------5--x2---7--x5---7------|
A |---2--x2---3-------5-------2--x2---3-------5-------7--x3--|
E |---0-----------------------0-----------------------5------|

e |---------------------------------------------------------|
B |---------------------------------------------------------|
G |----------5-------7---------------5-------5--------------|
D |---2------5--x4---7- x8---2-------5--x4---5--x5---5------|
A |---2-x4---3-------5-------2--x4---3-------7-------5--x3--|
E |---0----------------------0-----------------------7------|

e |----------------------------------|
B |----------------------------------|
G |-----------5-------5--------------|
D |---2-------5--x4---5--x5---5------| x3
A |---2--x4---3-------7-------5--x3--|
E |---0-----------------------7------|

e |------------------------------|
B |------------------------------|
G |-------------------5----------|
D |---2-------5-------5--x8---2--| let last one ring
A |---2--x4---5--x4---7-------2--|
E |---0-------3---------------0--|

hope its aite :)
Suggest correction
Give kudos to tab author, rate the tab!
1 2 3 4 5
comments
print report bad tab
guest
You may want to rate the tab now too:
select rating
Please do not post tabs as comments. Select "correction" instead!