Oops, an error
Loading. Please wait.

Things Ill Never Say Tab

version 2
version 2

Whole song

Interactive

3,502 views 3 this week
no commentswrite comment
1 2 3 4 5
please rate
add to favorites
launch autoscroll
font size
0
reset
how to read this tab
guitar tuner
Autoscroll
slow
fast
+/-
esc
set tempo
stop
Help us to improve Ultimate-Guitar.com Take our survey!
×
Song: Things I'll Never Say
Artist: Avril Lavigne
Album: Let Go


Chorus A (Guitar 1)
e--2--2-2-2--2--2-2-2-2---0--0-0-0--0--0-0-0-0---2--2-2-2---|
B--3--3-3-3--3--3-3-3-3---2--2-2-2--2--2-2-2-2---3--3-3-3---|
G--2--2-2-2--2--2-2-2-2---2--2-2-2--2--2-2-2-2---4--4-4-4---|
D--0--0-0-0--0--0-0-0-0---2--2-2-2--2--2-2-2-2---4--4-4-4---|
A-------------------------0--0-0-0--0--0-0-0-0---2--2-2-2---|
E-----------------------------------------------------------|

(continued)
e--2--2-2-2-2---3--3-3-3--3--3-3-3-3------------------------|
B--3--3-3-3-3---3--3-3-3--3--3-3-3-3------------------------|
G--4--4-4-4-4---0--0-0-0--0--0-0-0-0------------------------|
D--4--4-4-4-4---0--0-0-0--0--0-0-0-0------------------------|
A--2--2-2-2-2---2--2-2-2--2--2-2-2-2------------------------|
E---------------3--3-3-3--3--3-3-3-3------------------------|

Riff 1 (Guitar 2, each hit 4 times)  end on
e----------------------------------|------------------------|
B----------------------------------|------------------------|
G--7-7-7-7--6-6-6-6---7-7-7-7------|--7\--------------------|
D--x-x-x-x--x-x-x-x---x-x-x-x------|--x---5----5/9----------|
A--5-5-5-5--4-4-4-4---5-5-5-5------|--5\--x----x------------|
E-----------5-5-5-5---7-7-7-7------|------3----3/7----------|

Verse
e--2--2-2-2--2--2-2-2-2--3--3-3-3--3--3-3-3-3--2--2-2-2-----|
B--3--3-3-3--3--3-3-3-3--3--3-3-3--3--3-3-3-3--3--3-3-3-----|
G--4--4-4-4--4--4-4-4-4--0--0-0-0--0--0-0-0-0--2--2-2-2-----|
D--4--4-4-4--4--4-4-4-4--0--0-0-0--0--0-0-0-0--0--0-0-0-----|
A--2--2-2-2--2--2-2-2-2--2--2-2-2--2--2-2-2-2---------------|
E------------------------3--3-3-3--3--3-3-3-3---------------|

(continued)
e--2--2-2-2-2--0--0-0-0--0--0-0-0-0-------------------------|
B--3--3-3-3-3--2--2-2-2--2--2-2-2-2-------------------------|
G--2--2-2-2-2--2--2-2-2--2--2-2-2-2-------------------------|
D--0--0-0-0-0--2--2-2-2--2--2-2-2-2-------------------------|
A--------------0--0-0-0--0--0-0-0-0-------------------------|
E-----------------------------------------------------------|

Pre-Chorus
e--0--0-0-0--0--0-0-0-0--3--3-3-3--3--3-3-3-3--0--0-0-0-----|
B--0--0-0-0--0--0-0-0-0--3--3-3-3--3--3-3-3-3--0--0-0-0-----|
G--0--0-0-0--0--0-0-0-0--0--0-0-0--0--0-0-0-0--0--0-0-0-----|
D--2--2-2-2--2--2-2-2-2--0--0-0-0--0--0-0-0-0--2--2-2-2-----|
A--2--2-2-2--2--2-2-2-2--2--2-2-2--2--2-2-2-2--2--2-2-2-----|
E--0--0-0-0--0--0-0-0-0--3--3-3-3--3--3-3-3-3--0--0-0-0-----|

(continued)
e--0--0-0-0---0---------------------------------------------|
B--0--0-0-0---2---------------------------------------------|
G--0--0-0-0---2---------------------------------------------|
D--2--2-2-2---2---------------------------------------------|
A--2--2-2-2---0---------------------------------------------|
E--0--0-0-0-------------------------------------------------|

Chorus B (Guitar 2)
e-----------------------------------------------------------|
B-----------------------------------------------------------|
G--7---7--7--------------4---4--4---------------------------|
D--7---7--7---7---7--7---4---4--4---5---5--5----------------|
A--5---5--5---7---7--7---2---2--2---5---5--5----------------|
E-------------5---5--5--------------3---3--3----------------|

Post-Chorus A (Guitar 1)     Post-Chorus B (Guitar 2)
e--0--0-0-0--0--0-0-0-0--0--|---------------0---------------|
B--0--0-0-0--0--0-0-0-0--0--|---------------0---------------|
G--0--0-0-0--0--0-0-0-0--0--|---------------0---------------|
D--2--2-2-2--2--2-2-2-2--2--|--2----2---2---2---------------|
A--2--2-2-2--2--2-2-2-2--3--|--2----2---2---3---------------|
E--0--0-0-0--0--0-0-0-0-----|--0----0---0-------------------|

Riff 2
e--10-----10-----10-----9-----9-----9--------------------10-|
B-----10-----10-----10----10----10----10--8\7-7-7-7-7-10----|
G-----------------------------------------------------------|
D-----------------------------------------------------------|
A-----------------------------------------------------------|
E-----------------------------------------------------------|

Riff 3
e-----------------------------------------------------------|
B-----------------------------------------------------------|
G---7--\-4---2--------7--\-4---2----------------------------|
D-----------------------------------------------------------|
A-----------------------------------------------------------|
E-----------------------------------------------------------|

Riff 4
e-----0---------0----------5~-------------------------------|
B-------2---------2-----------------------------------------|
G-----------------------------------------------------------|
D-----------------------------------------------------------|
A-----------------------------------------------------------|
E--0----------3---------------------------------------------|

Bridge A (Guitar 1)
e--2--2-2-2--2--2-2-2-2--0--0-0-0--0--0-0-0-0--3--3-3-3-----|
B--3--3-3-3--3--3-3-3-3--2--2-2-2--2--2-2-2-2--3--3-3-3-----|
G--4--4-4-4--4--4-4-4-4--2--2-2-2--2--2-2-2-2--0--0-0-0-----|
D--4--4-4-4--4--4-4-4-4--2--2-2-2--2--2-2-2-2--0--0-0-0-----|
A--2--2-2-2--2--2-2-2-2--0--0-0-0--0--0-0-0-0--2--2-2-2-----|
E----------------------------------------------3--3-3-3-----|

(continued)
e--3--3-3-3-3--3--3-3-3--3--3-3-3-3-------------------------|
B--3--3-3-3-3--3--3-3-3--3--3-3-3-3-------------------------|
G--0--0-0-0-0--0--0-0-0--0--0-0-0-0-------------------------|
D--0--0-0-0-0--0--0-0-0--0--0-0-0-0-------------------------|
A--2--2-2-2-2--2--2-2-2--2--2-2-2-2-------------------------|
E--3--3-3-3-3--3--3-3-3--3--3-3-3-3-------------------------|

Bridge B (Guitar 2, each hit 4 times)
e-----------------------------------------------------------|
B-----------------------------------------------------------|
G--4-4-4-4-/-6-6-6-6-/-7-7-7-7-7-7-7-/-9--------------------|
D--x-x-x-x---x-x-x-x---x-x-x-x-x-x-x---x--------------------|
A--2-2-2-2-/-4-4-4-4-/-5-5-5-5-5-5-5-/-7--------------------|
E-----------------------------------------------------------|

Riff 5
e--0----3----0------------------------0m-0m-0m-0m-0m-0m-0m--|
B--0----0----0------------------------2m-2m-2m-2m-2m-2m-2m--|
G--0----0----0---2m-2m-2m-2m-2m-2m-2m-2m-2m-2m-2m-2m-2m-2m--|
D--2----0----2---2m-2m-2m-2m-2m-2m-2m-2m-2m-2m-2m-2m-2m-2m--|
A--2----2----2---0m-0m-0m-0m-0m-0m-0m-0m-0m-0m-0m-0m-0m-0m--|
E--0----3----0----------------------------------------------|

Riff 6 (Guitar 2, each hit 4 times)
e-----------------------------------------------------------|
B-----------------------------------------------------------|
G--7-7-7-7--9-9-9-9-\-7-7-7-7-7--6--------------------------|
D--x-x-x-x--x-x-x-x---x-x-x-x-x--x--------------------------|
A--5-5-5-5--7-7-7-7-\-5-5-5-5-5--4--------------------------|
E-----------------------------------------------------------|

Outro A (Guitar 1)                 Outro B (Guitar 2)
e--0--0-0-0--0--0-0-0-0--0------2--|------------------------|
B--0--0-0-0--0--0-0-0-0--1------3--|------------------------|
G--0--0-0-0--0--0-0-0-0--0------2--|--4---4--4--5-----------|
D--2--2-2-2--2--2-2-2-2--2------0--|--x---x--x--5-----------|
A--2--2-2-2--2--2-2-2-2--3---------|--2---2--2--3-----------|
E--0--0-0-0--0--0-0-0-0------------|------------3-----------|

Chorus A
Chorus A, Riff 1
Verse
Pre-Chorus
Chorus A, B
Post-Chorus A, B
Chorus A, Riff 2
verse, Riff
Pre-Chorus, Riff 4
Chorus A, B
Post-Chorus A, B
Bridge A, B
Riff 5
Chorus A, Riff 6
Post-Chorus A, B
Chorus A
Outro A, B
Suggest correction new What's this?
You can suggest a correction to this tab. Community and Mods will review your correction and vote to approve or reject it.
comments
We did not receive enough feedback on this tab! Please rate:
print report bad tab
1 2 3 4 5
guest
You may want to rate the tab now too:
select rating
Please do not post tabs as comments. Select "correction" instead!