Oops, an error
Loading. Please wait.

Under My Skin Bass Tab

4,338 views 1 this week
no commentswrite comment
1 2 3 4 5
accurate
x 4
add to favorites
launch autoscroll
font size
0
reset
guitar tuner
Tab Pro tools
  • play this tab
  • loop segment
  • change instrument
  • show fretboard
  • metronome
×
Best way to learn
"Under My Skin"
Autoscroll
slow
fast
+/-
esc
set tempo
stop
Contributor
Album: Under my skin
Artist: Avril Lavigne
Tab by UnterTaker

To view better the tabs copy it view it in a writning program...
then change the text format
in Courier New, size 10.... good quality!!


Under My Skin - 2004

•	Take me away
Intro:
G|---------------|
D|---------------|
A|-----------3---|
E|-2--0--5-----0-|

Verse:
G|---------------|
D|---------------|
A|-----------3---| x4
E|-2--0--5-----0-|

Pre 1:
G|-----------|
D|-----------|
A|-----------|
E|-2—0--12\0-|

Pre 2:
G|----------------|
D|----------------|
A|----------------| x2
E|-22--55—0-00-00-|

Chorus:
G|------------------|
D|------------------|
A|------------------| x2
E|-2222555500000000-

Intro
Verse

Pre 3:
G|------------|
D|------------|
A|------------|
E|-2—0-5/12\0-|

Pre 2
Chorus

Bridge:
G|---------------------------------------------|
D|---------------------------------------------|
A|-7-77-7-77\3-33-3-33/7-77-7-77---------------|
E|-------------------------------0000000000000-|

Pre 2
Chorus (until end)

•	Together
Verse: (when Avril start to sing "something just...")
G|-----------------|
D|-------------5---|
A|-7-0-7-0-7-0---5-| x2
E|-----------------|

Pre:
G|--------------------|
D|------5---------5\0-|
A|-7-3----5--7-3------|
E|--------------------|

Chorus:
G|-----------------|
D|---------555-----|
A|-777-333-----555-| x2
E|-----------------|

Outro:
G|---------|
D|---------|
A|-7-0-7-0-|
E|---------|

Verse (just 1 time)
Pre
Chorus

Bridge:
G|---------------------------------------------------|
D|---------------------------------------------------|
A|-3-5-7--3-5-7    --3-5-7--3-5-7--3-5-7-77-3-5-7\0--|
E|---------------------------------------------------|

Pre
Chorus (just 4 times)

End: (until end)
G|------------------|
D|---------5555-----|
A|-77773333----5555-|
E|------------------|

•	Don't tell me
Pre:
G|---------------------------------|
D|---------------------------------|
A|-0000000044444444000000002222222-
E|---------------------------------

Chorus:
G|-----------------------|
D|-----------------------|
A|-44440000----2222-2445-| x2
E|---------0000----------|

G|--------------------------|
D|--------------------------|
A|-44440000----222200002222-|
E|---------0000-------------|

Verse:
G|----------------------------|
D|----------------------------|
A|----------------------------|	 x4
E|-0-00-0-9-99-9-7-77-7-55555-|

Pre
Chorus

Bridge:
G|-----------------------------------------------------|
D|-----------------------------------------------------|
A|-----------------------------------------------------|
E|-55-55-5757-55-55-5757-555555555555555-222222222222/-|

Chorus (the first 44440000 is mute)

End:
G|-------------|
D|-------------|
A|-00002222420-
E|-------------

•	He wasn't
Verse 1: (enter "what happen to my Saturday")
G|-------------------------------------|
D|-------------------------------------|
A|-55555-55555-33333-33333-55555-55555-|
E|-------------------------------------|

Pre 1:
G|-------|
D|-------|
A|-33-22-|
E|-------|

Pre 2:
G|---------|
D|---------|
A|---------|
E|-0/3-3\0-|

Chrous:
G|---------------------------------------------|
D|---------------------------------------------|
A|---------------------------------------------| x2
E|-1010101010101010101010-5675-333333333333/10-|

Outro:
G|----------------------------|
D|----------------------------|
A|-55555-55555-33-55555-55555-|
E|----------------------------|

Break ("this is when...")

Verse 2:
G|---------------------------------------------------------------------------|
D|---------------------------------------------------------------------------|
A|-33333-33333-55555-55555-33333-33333-555555-555555-33333-33333-55555-55555-|
E|---------------------------------------------------------------------------|

Pre 1
Pre 2
Chorus

Verse 2:
G|-----------------------------------------------|
D|-----------------------------------------------|
A|-3333333333-5555555555-3333333333-555555555555-|
E|-----------------------------------------------|

Bridge 1:
G|----------------|
D|----------------|
A|-3-3-9-9-7-7-77-| x4
E|----------------|

Break

Chorus x2 (no first time E|-1010101010101010101010-5675-, but \3)
          (in the end of Chorus 10/-)

Bridge 2:
G|--------------------------------------|
D|--------------------------------------|
A|-33333333/999999999\33333333/99999999-
E|--------------------------------------

End:
G|-------------|
D|-------------|
A|-3-3-9-9-7-7-|
E|-------------|

•	How does it feel
Verse:
G|-------------    -----|
D|----------------------|
A|-0-3---3--0-3    -----| x2
E|-----1--------1-------|

Chorus:
   How does it feel | to be | different from me  | are we the same
G|------------------|-------|--------------------|------------------|
D|------------------|-------|--------------------|------------------|
A|---------------3--|-------|--------------------|------------------|
E|-1----------------|----3--|-1------------------|-3----------------|

   How does it feel | to be | different from me  | are we the same
G|------------------|-------|--------------------|------------------|
D|------------------|-------|--------------------|------------------|
A|---------------3--|-------|--------------------|------------------|
E|------------------|----3--|-1------------------|-3----------------|

   How does it feel
G|------------------------|
D|------------------------|
A|-0--------------------0-|
E|------------------------|

Verse (just 1 time)
Chorus

Bridge 1:
G|------|
D|------|
A|------| (until the break)
E|-0/10-

Chorus x2

Bridge 2: (begin: "ah aha aaaaah aaaaah aaaaah")
G|---------|
D|---------|
A|-3-------| (until the end)
E|---3-1-0-|

•	My happy ending
Intro:
G|-------------|
D|-------------|
A|-------55----| x2
E|-77-33----55-|

Pre:
G|---------|
D|---------|
A|---------|
E|-3-5-3-5-|

Chrous:
G|------------------------------|
D|------------------------------|
A|------5555---    -------------| x2
E|-3333------55555555-4321------|

G|-----------------------|
D|-----------------------|
A|------5555---    ------| x2
E|-3333------5-432-------|

Outro:
G|--------------------|
D|--------------------|
A|--------------------|
E|-000000000333333333-

Intro

Verse:
G|---------------------------------------------|
D|---------------------------------------------|
A|-----------------------5-5-55-555------------| x2
E|-7-7-77-777-3-3-33-333------------5-5-55-555-|

Pre
Chorus
Outro

Bridge:
G|---------------------------------------------------------------|
D|---------------------------------------------------------------|
A|-000000------000000---------0000002222222----------------------|
E|-------333333    ------333456----------------3333333333/101010-|

Chorus
Outro
Chorus
Intro (just 4 times)

•	Nobody's home
Verse:
G|----------------------------------------------|
D|----------------------------------------------|
A|--------------5-5-555-555-3-3-333-333--333333-| x3
E|-0-0-000-000-------------—--------------------|

Chorus:
G|---------------------------------------|
D|---------------------------------------|
A|---------------------5-5555555-5555555-| x2
E|-0-0000000-3-3333333------------—------|

Verse

Bridge 1:
G|-9-15-12-11-10-|
D|---------------|
A|---------------| x9
E|---------------|

Chorus

Bridge 2:
G|-9-15-12-11----15-12-11-99-5---------0-|
D|---------------------------------------|
A|---------------------------------------|
E|---------------------------------------|

•	Forgotten
Intro 1:
G|---
D|---
A|-3-
E|---

Intro 2: (when Avril stop to say "ah a, aha a, aha ah a ah" the slowly)
G|-----------------|
D|-----------------|
A|-3-6-5---3-6-5---|
E|-------3-------3-|

Verse 1: (when Avril begin to sing)
G|---------------------------|
D|-------5---------------5---|
A|-3-6-5---3-6-5---3-6-5---3-|
E|---------------3-----------|

Verse 2: (when enter the band)
G|---------------------------|
D|-------5---------------5---|
A|-3-6-5---3-6-5---3-6-5---3-|
E|---------------3-----------|

Chorus:
G|-------------------------|
D|-----------6666666333333-|
A|-3333366666--------------| x3
E|-------------------------|
Intro 1 x2
Verse 2
Chorus
Intro 1 x2

Brdige:
G|--------------------------|
D|--------------------------|
A|-333336666655555553333333- x4
E|--------------------------

Chorus (until end) (the last time you can also use A-33-66 D-66-33)

•	Who knows
Intro:
G|-------------|
D|-22----------|
A|----33----00-| x2
E|-------33----|

Verse 1:
G|-------------|
D|-2-----------|
A|----3-----00-| x4
E|-------3-----|

Pre:
G|--------------------------|
D|--------------------------|
A|-0000000000000-2-3-33-333-|
E|--------------------------|

Chorus:
G|--------------------------------------|
D|--------------------------------------|
A|--------------------------------------|
E|-33-3-33-/-88-8-88-\-33-3-33-/88-8-88-|

Outro:
G|---------------------|
D|---------------------|
A|-0000000000000-2~-3~-|
E|---------------------|

Intro

Verse 2:
G|-------------|
D|-22----------|
A|----33----00-| x4
E|-------33----|

Pre
Chorus
Outro

Bridge:
G|---------|
D|-5---5---|
A|---3---3-|
E|---------|

Break

Pre 2:
G|------------|
D|------------|
A|------------|
E|-3/5/7/9/12-

Chorus
Outro

•	Fall to pieces
Verse:
G|-------------    ---------|
D|--------------------------|
A|-00-33--------------------| x2
E|-------33-33-11-1131------|

Pre:
G|-----------------|
D|-----------------|
A|-----------------|
E|-55-5-55-11-1-11-|

Chorus:
G|--------------------------------------------------------------------------|
D|--------------------------------------------------------------------------|
A|-33333333-------------------------33333333--------------------------------|
E|---------555555553333333311111111---------5555555533333333555555551111111-|

Verse
Pre
Chorus

Bridge:
G|-----------------------------------------------------------------|
D|-----------------------------------------------------------------|
A|-003-33-------------------------003-33---------------------------|
E|-------3-330-001-115-5-5-3------------3-330-001-115-5-5-3--0-0-1-|

Break

Chorus x2

End: ("Cause I'm in love with you......")
G|-------------    -------------------------------|
D|------------------------------------------------|
A|-333333-345-000000-012--------------------------|
E|-----------------------3333333-345-1111111------|

•	Freak out
Intro:
G|-------------    ------|
D|-----------------------|
A|-66--------------------| x2
E|----11-44-44-3434------|

Verse:
G|--------------|
D|--------------|
A|-66-----------| x4
E|----11-44-44--|

Pre:
G|-------------------|
D|-------------------|
A|-------------------|
E|-333333333-5-66-88-|

Chorus:
G|-------------------------|
D|-------------------------|
A|-66-66-------33-33-------| x2
E|-------66-66-------44-44-|

Intro
Verse
Pre
Chorus

Bridge: ("Oh o my own...")
G|---------------------------------|
D|---------------------------------|
A|-2-2-00--------2-0---------------|
E|--------3-33-3-----0000000000003-|

Break

Chorus
Intro (until end)

•	Slipped away
Verse:
G|---
D|---
A|--- x many times
E|-3-

Pre:
G|---------|
D|---------|
A|-3---3---|
E|---3-—-3-|

Chorus:
G|-------------------|
D|------0----------0-|
A|---0--------0------|
E|-0---3----0----3---|

Verse
Pre
Chorus

Bridge:
G|--------------------------------------------------------------------|
D|--------------------------------------------------------------------|
A|-00000000-------------3333333—0000000-------------------------------|
E|---------0000000333333----------------00000003333333310101010101010-|

G|-------------------------------------------------------------------------------|
D|-------------------------------------------------------------------------------|
A|-------------------------------------------------------------------------------|
E|-0000000033333335555555510101010101010--00000003333333388888881010101010101010-|

Chorus (until solo piano)

I think they're 99,9999999% correct so... good play!


X UnderTaker X
comments
print report bad tab
I want to post or [tab]
guest
You may want to rate the tab now too:
select rating
Please do not post tabs as comments. Select "correction" instead!