Oops, an error
Loading. Please wait.

Unwanted Tab

version 2
version 2

Whole song

Interactive

2,578 views 1 this week
2 commentsread comments
1 2 3 4 5
accurate
x 11
add to favorites
launch autoscroll
font size
0
reset
how to read this tab
guitar tuner
Autoscroll
slow
fast
+/-
esc
set tempo
stop
Help us to improve Ultimate-Guitar.com Take our survey!
×
Author
Song: Unwanted
Artist: Avril Lavigne                        
Tabbed by: Sofa_dofa

This is my first tab I think its about 99% correct. It's a great song and really easy to play.  

Tuning: Standard

Intro:

     Em  C   D   A
     
e|---0---0---2---0-----|
B|---0---1---3---2-----|
G|---0---0---2---2-----|       x2
D|---2---2---0---2-----|
A|---2---3---0---0-----|
E|---0---0---0---0-----|

e|--------------------------------|
B|------------------3-----2-------|
G|------0-----0---2-----2---------|        x2
D|----2-----2---0-----0-----------|      
A|--2-----3-----------------------|
E|--------------------------------|


Verse:
e|--------------------------------|
B|------------------3-----2-------|
G|------0-----0---2-----2---------|        x8
D|----2-----2---0-----0-----------|      
A|--2-----3-----------------------|
E|--------------------------------|


Chorus:
     Em  C   D   A
     
e|---0---0---2---0-----|
B|---0---1---3---2-----|
G|---0---0---2---2-----|       x6
D|---2---2---0---2-----|
A|---2---3---0---0-----|
E|---0---0---0---0-----|

Good Luck!
============================================================================
Suggest correction
comments
print report bad tab
2 comments total.
+1 reply
sofa_dofa 60 wrote on June 18 2005, 12:00 am

Sorry i wrote it wrong heres the correct one

e|--------------------------------|
B|------------------3-------------|
G|------0-----0---2-------2-------| x2
D|----2-----2---0-------2---------|
A|--2-----3-----------0-----------|
E|--------------------------------|

0 reply
AvrilFanUK 10 wrote on September 23 2006, 12:38 pm

Thanks! I thought the intro didn't sound right. 5 stars from me.

guest
You may want to rate the tab now too:
select rating
Please do not post tabs as comments. Select "correction" instead!