Oops, an error
Loading. Please wait.

Kill Your Heroes tab

5,020 views 3 this week
1 commentread comment
1 2 3 4 5
x 4
add to favorites
×
Save as Personal and add changes to this tab that will be seen only by you. Learn more ›
×
You can save this tab as Personal to edit and correct it or add notes. All changes will be seen only by you. Learn more »
launch autoscroll
font size
0
reset
how to read this tab
guitar tuner
edit
Autoscroll
slow
fast
+/-
esc
set tempo
stop
Author
Difficulty
Electric 1-Standard
Electric 2-Drop D
Optional Electric 2-Standard

INTRO

ELECTRIC 1
CLEAN

E|----------------------------------------8-------|
B|-8-8-8-10-8--8-8-8-------8-8-8-10-8-8-8--8-10-9-|
G|--9-9------9--9-9-9-7-----9-9------9-9-9--------|
D|---------------------10-------------------------|
A|------------------------------------------------|
E|------------------------------------------------|

VERSE

ELECTRIC 1
CLEAN

E|---|
B|---|
G|-9-| (trill this for the 1st half of verse then intro)
D|---|
A|---|
E|---|

CHORUS

ELECTRIC 1
CLEAN

E|-8--5-12-|    E|----------|
B|-10-6-13-|    B|----------|
G|-9--5-12-|    G|-14-10-17-|
D|---------| or D|-x--x--x--|
A|---------|    A|-12-8--15-|
E|---------|    E|----------|

ELECTRIC 2
MILD DISTORTION
                                       (optional if you don't wanna drop)
E|--------|                            E|-------|
B|--------|                            B|-------|
G|--------|                            G|-----5-|
D|-7-3-10-| (play along to the beat)   D|-7-3-5-|
A|-7-3-10-|                            A|-7-3-3-|
D|-7-3-10-|                            E|-5-1---|

VERSE

CHORUS

BRIDGE

ELECTRIC 1
CLEAN

E|--------------------------------|
B|--------------------------------|
G|-7//9--9//12--14\\9--7//9--7\\5-|
D|--------------------------------|
A|--------------------------------|
E|--------------------------------|

CHORUS

END with

ELECTRIC 1
Electronic

E|-----------------------------|
B|-181818-171717---------------|
G|---------------161616-171717-|
D|-----------------------------|
A|-----------------------------|
E|-----------------------------|
Suggest correction
Creating personal tab
Creating personal tab
You can edit any tab online and save it as your Personal.

You can edit, replace or remove any tab part or add personal notes – all changes will be seen only by you.

Personal tabs can be accessed anytime from any device, even offline.
Learn more »
comments
print report bad tab
1 comment total.
0 reply
lolorox 87 Jul 31, 2013 08:38 AM

e|------------------------------------------------------------------8----------|
B|-8---8---8--10--8---8---8---8----------8---8---8--10--8---8---8-----8--------|
G|---9---9----------9---9---9---9--7-------9---9----------9---9---9------10--9-|
D|------------------------------------10---------------------------------------|
A|-----------------------------------------------------------------------------|
E|-----------------------------------------------------------------------------|

guest
You may want to rate the tab now too:
select rating
Wanna post a correction for this tab? Suggest correction