Oops, an error
Loading. Please wait.

Not Your Fault Tab

4,609 views 12 this week
no commentswrite comment
1 2 3 4 5
excellent!
x 2
add to favorites
launch autoscroll
font size
0
reset
how to read this tab
guitar tuner
Tab Pro tools
  • play this tab
  • loop segment
  • change instrument
  • show fretboard
  • metronome
×
Best way to learn
"Not Your Fault"
Autoscroll
slow
fast
+/-
esc
set tempo
stop
Contributor
Not Your Fault
AWOLNATION
Megalithic Symphony

Tabbed by: JimmyStJames97
E-mail: jakarate1@gmail.com

Tuning: Standard (EADGBe low to high)

Opening Riff (starts on off beat):

Left Channel
e|----|----------------------13-13-13-13---------------------------------------|
B|----|----------------------------------13-13-13-13---------------------------|
G|-10-|-10-10-10-12-12-12-12---------------------------------------------------|
D|----|------------------------------------------------------------------------|
A|----|------------------------------------------------------------------------|
E|----|------------------------------------------------------------------------|

Right Channel
e|----|------------------------------------------------------------------------|
B|----|------------------------------------------------------------------------|
G|-14-|-14-14-14-12-12-12-12-10-10-10-10-10-10-10-10---------------------------|
D|----|------------------------------------------------------------------------|
A|----|------------------------------------------------------------------------|
E|----|------------------------------------------------------------------------|

Play 4x through, then go into...

Verse Riff:

Part being played under the bass line (cut all notes off quickly)
e|-------------------------------------------------------------------------|
B|----18-18----18-18----17-17----17-17----15-15----15-15----13-13----17-17-|
G|----19-19----19-19----17-17----17-17----15-15----15-15----14-14----17-17-|
D|----19-19----19-19----17-17----17-17----15-15----15-15----14-14----17-17-|
A|-17-------17-------15-------15-------13-------13-------12-------15-------|
E|-------------------------------------------------------------------------|

Synth Part (starts after the above has been played twice through):
e|---------------------------------------------------------------------------|
B|---------------------------------------------------------------------------|
G|----------14---------------------------------------------------------------|
D|-15-17-15----15-17-12-15-12-14-12-14-12-15-12------------------------------|
A|---------------------------------------------------------------------------|
E|---------------------------------------------------------------------------|

Chorus

Chords: 
"Baby when I'm yellin' at you..."
F     Bb       D       C  x4, then
"Oh, it's not that you should care..."
Bb             C          x1

Left Channel (tremolo pick all notes & follow chords for timing)
Under F-Bb-D-C progression
e|-------------|
B|-------------|
G|-14-15-14-12-| x4; replace the last 2 notes with a 17-fret note under the D & C 4th time through
D|-------------|
A|-------------|
E|-------------|

Under Bb-C progression
e|-------|
B|----18-|
G|-19----| x1
D|-------|
A|-------|
E|-------|

Main Synth (put an insane amount of vibrato on the last note of both parts):
e|---------------------------------------------------------------------------------|
B|-13---13-13-13---13-13-15---15-15-15---15-15-----------------------13---13-13-13-|
G|---------------------------------------------14---14-14-14---14-14---------------|
D|---------------------------------------------------------------------------------|
A|---------------------------------------------------------------------------------|
E|---------------------------------------------------------------------------------|

e|---------------------------------------------------------------------------------|
B|-13---13-13-13---13-13-15---15-15-15---15-15-------------------------------------|
G|---------------------------------------------14---14-14-14---14-14-12---12-12-12-|
D|---------------------------------------------------------------------------------|
A|---------------------------------------------------------------------------------|
E|---------------------------------------------------------------------------------|

End with Opening Riff.

Enjoy.
- Jimmy St. James
comments
We did not receive enough feedback on this tab! Please rate:
print report bad tab
1 2 3 4 5
I want to post or [tab]
guest
You may want to rate the tab now too:
select rating
Please do not post tabs as comments. Select "correction" instead!