Oops, an error
Loading. Please wait.

Run bass

version 1
version 1

Whole song

Interactive

6,158 views 30 this week
1 commentread comment
1 2 3 4 5
x 9
add to favorites
×
Save as Personal and add changes to this tab that will be seen only by you. Learn more ›
×
You can save this tab as Personal to edit and correct it or add notes. All changes will be seen only by you. Learn more »
launch autoscroll
font size
0
reset
guitar tuner
edit
Autoscroll
slow
fast
+/-
esc
set tempo
stop
Author
Difficulty
[Main Riff]
G|-------4--------3----------|      |-------4-----------------3-----|
D|----6-------4-6-----4--6---|      |----6---------4-5-----6--------|
A|---------------------------| X3   |------------6------------------|
E|-4-------4--------4--------|      |-4-------4---------4-----------|

[Bridge]
G|-------------------------------------|
D|-------------------------------------|
A|-------------------------------------|
E|-5----444444444444444444444444444444-|

[Bridge 2]
(same as bridge, but slower)
G|----------------------------------------|
D|----------------------------------------|
A|----------------------------------------|
E|-5--------4-4-4-4-4-4-4-4-4-4-4-4-4-4-4-|

            
            
Suggest correction
Creating personal tab
Creating personal tab
You can edit any tab online and save it as your Personal.

You can edit, replace or remove any tab part or add personal notes – all changes will be seen only by you.

Personal tabs can be accessed anytime from any device, even offline.
Learn more »
comments
print report bad tab
1 comment total.
0 reply
SoUnafraidToDie 32 Jul 07, 2016 05:02 AM

-------4-----------------3-----|
----6---------4-5-----6--------|
------------6------------------|
-4-------4---------4-----------|
The last Ab in this should be an Eb. You can't do this in standard tuning, but it sounds a lot more correct. But the rest sounds good, thank you!

guest
You may want to rate the tab now too:
select rating
Wanna post a correction for this tab? Suggest correction