Oops, an error
Loading. Please wait.

Sail Tab

version 1
version 1

Whole song

Interactive

Video

229,115 views 384 this week
9 commentsread comments
1 2 3 4 5
accurate
x 37
add to favorites
launch autoscroll
font size
0
reset
how to read this tab
guitar tuner
Autoscroll
slow
fast
+/-
esc
set tempo
stop
Help us to improve Ultimate-Guitar.com Take our survey!
×
Contributor
dflynn 95
"AWOLNATION is an American indie rock band, and is the solo project of Aaron Bruno,
formerly of Under the Influence of Giants and Hometown Hero. The band is signed to Red Bull
Records[1], and their first EP, Back from Earth, was released on iTunes on May 18, 
2010[2]." - Wikipedia

http://www.redbullrecords.com/index.php/artists/detail/artist_-_awolnation/

I've been playing this song for a while, absolutely addicted to it and it's not that
difficult to play.


Everything but the short solo / piano interlude:

   E5
e|---------------------------------|
B|---------------------------------|
G|-9-------------------------------|
D|-9------------------7--9--7------|
A|-7---7-7-7-10-10-10---------10-7-|
E|---------------------------------| x2

   D5
e|-----------------------------|
B|-----------------------------|
G|-7---------------------------|
D|-7---------------------5-----|
A|-5---5-5-5-7-7-7----7----7-5-|
E|-----------------7-----------|

   G5                 D5
e|------------------------------------|
B|------------------------------------|
G|--------------------7---9-9-9-12----|
D|-5---9-9-9-12-12-12-7---------------|
A|-5------------------5---------------|
E|-3----------------------------------|

Just listen to the song for timing, it's pretty simple.

That's pretty much the whole song, just repeat it or mix it up and play the chorus with
just chords. Sounds great if one person plays the chords and the other plays this.

Questions, Comments, Feedback?
b.darcyflynn@gmail.com
comments
print report bad tab
9 comments total. Showing first comments.
0 reply
homeless-john 880 wrote on June 4 2011, 08:48 am

This bit:
e------------------------------------|
B------------------------9-9-9-12----|
G--------------------7---------------|
D-5---9-9-9-12-12-12-7---------------|
A-5------------------5---------------|
E-3----------------------------------|

Should be like this:
e------------------------------------|
B------------------------------------|
G--------------------7---9-9-9-12----|
D-5---9-9-9-12-12-12-7---------------|
A-5------------------5---------------|
E-3----------------------------------|

PS LOVE this song and band

+1 reply
JHall91 263 wrote on July 9 2011, 11:32 am

Homeless John not to be an ass but I don't see a single difference between yours and his...

+6 reply
JHall91 263 wrote on July 9 2011, 11:43 am

And now I just feel like I'm being a jerk but your tab either needs transcribed down a half-step or you need to tune your guitar down a half-step...I prefer just moving my hand down and staying in standard.
Not gonna type out a tab but the first chord, instead of starting on fret 7 (of the A string) should start of fret 6..and the rest follows pattern.

I want to post or [tab]
guest
You may want to rate the tab now too:
select rating
Please do not post tabs as comments. Select "correction" instead!