Oops, an error
Loading. Please wait.
We have an official Sail tab made by UG professional guitarists. Check out the tab »
×

Sail chords

version 6
version 6

Whole song

Interactive

Video

2,263 views 27 this week
no commentswrite comment
1 2 3 4 5
x 9
add to favorites
×
Save as Personal and add changes to this tab that will be seen only by you. Learn more ›
×
You can save this tab as Personal to edit and correct it or add notes. All changes will be seen only by you. Learn more »
launch autoscroll
font size
0
reset
transpose
0
reset
display chords
guitar tuner
edit
Autoscroll
slow
fast
+/-
esc
set tempo
stop
Author
Difficulty
intermediate
About this tab version
Detailed picking for all parts of the song, intro, verse, chorus and bridge, never seen before so did it myself. Was this info helpful? Yes No
Strumming
There is no strumming pattern for this song yet. and get +5 IQ
[INTRO]
[Guitar 1 (low riff) – played continuously throughout the song (without the full chords)]
e|-------------------------]    |------------------------------------------2—0-0-0-3--0----|
B|-----------------0-------]    |-3--------------------------0-0-0-3-3-3---3----------0----|
G|-0-------0-0-0-2---2-0---] x2 |-2-------------0-2-0------0---------------2----------0----|
D|-2-2-2-2---------------2-]    |-0-0-0-0-2-2-2-------2-0--0---------------0----------2----|
A|-2-----------------------]    |--------------------------2--------------------------2----|
E|-0-----------------------]    |-----------------------------------------------------0----|
     Em                            D                        G               D          Em

[Guitar 2](high riff)
e|-0-0-0-0-3-3-3-5-7-5-3-0-]    |-2-------0-0-0-3-5-3-0----3--------------5----------7----|
B|-0-----------------------]    |-3-3-3-3---------------3--3-------3-3-3--7--------8—8----|
G|-0-----------------------](x2)|-2------------------------4-4-4-4--------7--9-9-9---9----|
D|-2-----------------------]    |-0------------------------5--------------7----------9----|
A|-2-----------------------]    |--------------------------5--------------5----------7----|
E|-0-----------------------]    |----------------------------------------------------7----|
     Em                            D                        G              D          Em

[VERSE]
[Guitar 2](Guitar 1 repeats intro)
e|-0-3s7-7p5-3h5-3-3-0-|    |-2-3s7-7p5-3h5-3-3-0-3--3-7-7-7-10-10-10-5----------7--|
B|-0-------------------|    |-3----------------------3----------------7--5-5-5-8-8--|
G|-0-------------------|(x2)|-2----------------------4----------------7----------9--|
D|-2-------------------|    |-0----------------------5----------------7----------9--|
A|-2-------------------|    |------------------------5----------------5----------7--|
E|-0-------------------|    |-------------------------------------------------------|
     Em                        D                      G                D          Em

[CHORUS]
e|-0--3-2-0---0-3-5-3-0--3-2-0---0-2-3-0-----2-2-----------2-------------------------------|
B|-0--------3---------0--------3---------3---3---3-------3---3---3-3-3-3-3-3-3-7-5-5-5-8-5-|
G|-0------------------0--------------------2-2-----2-0-2-------2-4-4-4-4-------7-----------|
D|-2------------------2----------------------0-------------------5-5-5-5-------7-----------|
A|-2------------------2------------------------------------------5-------------5-----------|
E|-0------------------0--------------------------------------------------------------------|
     Em                 Em                     D                   G             D

[BRIDGE]
e|---0---0-----0---0-------0---0-----0---0-----0--0---0-------0---0-------0---0-----2-0-2-----|
B|-----3--3-0----3---3-0-----3--3-0----3---3-0-3----3---3-------3---3-------3---3---------3---|
G|-0---------------------0---------------------2----------2-2---------2-0---------0---------2-|
D|-2---------------------2---------------------0------------------------0---------------------|
A|-2---------------------2----------------------------------------------2---------------------|
E|--------------------------------------------------------------------------------------------|
   Em                    Em                    D                        G            D

Em
This is how I show my love
Em
Made it in my mind because
D                        G   D
Blame it on my ADD baby

Em
This is how an angel cries
Em
Blame it on my own sick pride
D                       G
Blame it on my ADD baby
D    Em
SAIL!...

[Em D G D Em]

Em
Maybe I should cry for help
Em
Maybe I should kill myself
D                       G   D
Blame it on my ADD baby

Em
Maybe I'm a different breed
Em
Maybe I'm not listening
D                       G
Blame it on my ADD baby
D    Em
SAIL!...

[Em D G D Em]

            
            
Suggest correction
Creating personal tab
Creating personal tab
You can edit any tab online and save it as your Personal.

You can edit, replace or remove any tab part or add personal notes – all changes will be seen only by you.

Personal tabs can be accessed anytime from any device, even offline.
Learn more »
comments
print report bad tab
guest
You may want to rate the tab now too:
select rating
Wanna post a correction for this tab? Suggest correction