Oops, an error
Loading. Please wait.

Amo Tab

version 1
version 1

Whole song

8,096 views 1 this week
no commentswrite comment
1 2 3 4 5
3 more votes to show rating
add to favorites
launch autoscroll
font size
0
reset
how to read this tab
guitar tuner
Autoscroll
slow
fast
+/-
esc
set tempo
stop
Help us to improve Ultimate-Guitar.com Take our survey!
×
Difficulty
intermediate
| Amo lo q veo y .......|Amo lo q muestras... |Amo lo q eres o.....   |
e|------0-0-1-3--0-0-1-3-|---------0-1-----0-1-|-----------0-------0---|
B|-----1-----------------|-----3-3-----3-3-----|-----1-1-3---1-1-3-----|
G|----0------------------|----0----------------|----2------------------|
D|---2-------------------|---0-----------------|---2-------------------|
A|--3--------------------|--2------------------|--0--------------------|
E|-----------------------|---------------------|-----------------------|

|Te amo en lo ajeno...|Amo lo q entregas...|Amo tus preguntas.... |
|---------------------|--------------------|------0---------------|
|-----0-0-1-3—0-0-1-3-|--------0-1-----0-1-|-----1----0-1-----0-1-|
|----0----------------|----2-2-----2-2-----|----0---0-----0-0-----|
|---2-----------------|---3----------------|---2------------------|
|--2------------------|--3-----------------|--3-------------------|
|---------------------|--------------------|----------------------|

|Yo amo tus dudas......|Te amo en lo simple... |→
|------1-1-3-5—1-1-3-5-|---------------------0.|→
|-----1----------------|-0-0-1-3—-0-0-1-----2--|→
|----2-----------------|-------------------0---|→
|---3------------------|------------------2----|→
|--3-------------------|-----------------0-----|→
|----------------------|-----------------------|→

|Y amo lo q dices....|Amo tus recuerdos...|Amos tus olores.....|
|----2-2-3-5—2-2-3-5-|----0-0-2-3—0-0-2-3-|--------0-2-----0-2-|
|---3----------------|---2----------------|----3-3-----3-3-----|
|--2-----------------|--2-----------------|---4----------------|
|-0------------------|-2------------------|--4-----------------|
|--------------------|--------------------|-2------------------|
|--------------------|--------------------|--------------------|

|Te amo en el beso...|Y amo lo q amas.....|Te amo por amor sin...|
|----------1-------1-|--------------------|----------------------|
|----2-2-3---2-2-3---|-0-0-2-3—0-0-2-3----|-----2-3------2-3-----|
|---2----------------|--------------------|-2-2------2-2---------|
|--4-----------------|--------------------|----------------------|
|-4------------------|--------------------|----------------------|
|--------------------|--------------------|----------------------|

|Te amo y si pudiera...|Se q te amaría aun...|Y amo lo q amas.... |
|----------------------|----------0--------0-|--------------------|
|-------0--------0-----|----2-2-3----2-2-3---|----0-0-2-3—0-0-2-3-|
|-0-0-2----0-0-2-------|---2-----------------|---0----------------|
|----------------------|--2------------------|--0-----------------|
|----------------------|-0-------------------|-2------------------|
|----------------------|---------------------|--------------------|

|Te amo por amor a....|T amo con orgullo.....|Porq para amarte yo.... |→
|---------------------|----------------------|----------0--------0--2-|→
|-----2-3------2-3----|-------0--------0-----|----2-2-3----2-2-3----0-|→
|-2-2------2-2--------|-0-0-2----0-0-2-------|---2------------------2-|→
|---------------------|----------------------|--2-------------------1-|→
|---------------------|----------------------|-0--------------------2-|→
|---------------------|----------------------|----------------------0-|→

|Amo lo q seas y lo...|Amo lo q afirmas....|Amo lo q dices lo....|
|-----1---------------|--------------------|----1-1-3-5—-1-1-3-5-|
|----1----0-1-----0-1-|----1---0-1-----0-1-|---3-----------------|
|---2---2-----2-2-----|---0—0------0-0-----|--2------------------|
|--3------------------|--2-----------------|-0-------------------|
|-3-------------------|-3------------------|---------------------|
|---------------------|--------------------|---------------------|

|Te amo en lo q mides...|Y amo lo q atrapas...|Amo tu alegría y tus...|
|----0-0-1-3—0-0-1-3----|--------1-2-----1-2--|---------1-2------1-2--|
|---1-------------------|----4-4-----4-4------|----2-2------2-2-------|
|--2--------------------|---4-----------------|---3-------------------|
|-2---------------------|--4------------------|--4--------------------|
|-----------------------|-2-------------------|-4---------------------|
|-----------------------|---------------------|-----------------------|

|T amo en la carne....|T amo en tus crisis y en tus calmas.|
|---------------------|--------2-3-5------2-3-5s-----------|-2-|
|----1-1-3-4—-1-1-3-4-|----6-6--------6-6------------------|-3-|
|---3-----------------|---6--------------------------------|-2-|
|--3------------------|--6---------------------------------|-0-|
|-1-------------------|-4----------------------------------|---|
|---------------------|------------------------------------|---|

|Amo lo q pides y....|Amo tus caricias tus...|Amo tus instantes....|
|--------------------|-----------------------|---------------------|
|----0-0-1-3—0-0-1-3-|-----0—1------0-1------|---------0-------0---|
|---0----------------|-2-2------2-2----------|---0-0-2---0-0-2-----|
|--0-----------------|-----------------------|--2------------------|
|-2------------------|-----------------------|-2-------------------|
|--------------------|-----------------------|---------------------|

|T amo en tu cielo....|  |Y amo lo q amas yo...|T amo por amor sin....|
|----2-2-3-5--2-2-3-5-|  |-----0-0-2-3—0-0-2-3-|-------- 2-3------2-3-|
|---3-----------------|  |----1----------------|-----3-3------3-3-----|
|--3------------------|  |---0-----------------|----0-----------------|
|-3-------------------|  |--2------------------|---0------------------|
|---------------------|  |-3-------------------|--2-------------------|
|---------------------|  |---------------------|-3--------------------|

|T amo y si pudiera...|Sé q te amaría aun...|Y amo lo q amas yo....|
|----------0--------0-|----2-2-3-5--2-2-3-5-|-----0-0-2-3--0-0-2-3-|
|----2-2-3----2-2-3---|---3-----------------|----1-----------------|
|---0-----------------|--2------------------|---0------------------|
|--2------------------|-0-------------------|--2-------------------|
|-3-------------------|---------------------|-3--------------------|
|---------------------|---------------------|----------------------|

|T amo por amor a dar lo mío.|T amo con orgullo de quererte.|
|------------2--3------2--3--|----------------0-----------0-|
|---------3-3------3--3------|-------1--1--3-----1--1--3----|
|-------0--------------------|-----0------------------------|
|-----0----------------------|---2--------------------------|
|---2------------------------|-3----------------------------|
|-3--------------------------|------------------------------|

|Porque para amarte yo e nacidooooo ohnoooooooo hjoooooooooouoho.|
|--------2--2--3—5--2--2--3-5ss-----0---0-----0--------2-3---2-3-|
|------3---------------------------1-1-3-1-1-3------3-3---3-3----|
|----2----------------------------0----------------0-------------|
|--0-----------------------------2----------------0--------------|
|-------------------------------3----------------2---------------|
|-----------------------------------------------3----------------|

|ehhhhh jehenoooooou.|heeeejee|     
|---------0----2-2-3-|------3-|   
|----1-1-3----3------|-----3--|     
|---2--------2-------|----0---|     
|--2--------0--------|---0----|     
|-0------------------|--2-----|     
|--------------------|-3------|     
Suggest correction
Give kudos to tab author, rate the tab!
1 2 3 4 5
comments
print report bad tab
guest
You may want to rate the tab now too:
select rating
Wanna post a correction for this tab? Suggest correction