Oops, an error
Loading. Please wait.

Dont Say Goodbye Tab

version 1
version 1

Solo

Whole song

Interactive

2,167 views 1 this week
no commentswrite comment
1 2 3 4 5
please rate
add to favorites
launch autoscroll
font size
0
reset
how to read this tab
guitar tuner
Tab Pro tools
  • play this tab
  • loop segment
  • change instrument
  • show fretboard
  • metronome
×
Best way to learn
"Dont Say Goodbye"
Autoscroll
slow
fast
+/-
esc
set tempo
stop
Contributor
Difficulty
Tuning
novice
D# G# C# F# A# D#
Artist: Axel Rudi Pell
Song: Don't Say Goodbye
Tuning: Half-Step Down

Tabbed by: guam68
email: guam_68@hotmail.com 

Awesome song but I couldn't find the solo for it and I don't have guitar
pro so I decided to try and tab it out. Only recently started playing 
guitar and this is my first tab so its probably off in quite a few areas.
It sounds pretty good to me though. Leakbox did a spot on job of the rest
of the song so check that out too. I'm open for any criticism/corrections.
Enjoy



  3:17
E|-----------------------------------------------------------------12-----|
B|--------------------------------------------------------------------15--|
G|---------7-9h10p7-9---7-9-10—10h12-9---14-12-(12)b14r12b14r12--12-------|
D|--7-9-10----------------------------------------------------------------|
A|------------------------------------------------------------------------|
E|------------------------------------------------------------------------|
 |
 |3:27 
E|---------12-------------------------------------------------------------|
B|-13-12-13---13h15-13----------------------------------------------------|
G|---------------------14p12h14p12—12b14---12b14-12-------12--------------|
D|--------------------------------------------------14-15----14--12-14-15-|
A|------------------------------------------------------------------------|
E|------------------------------------------------------------------------|
 |
 |3:35                |- pb -|
E|------------------------------------------------------------------------|
B|------------15b17-17-17-17r15-13-12-15-13-12----------------------------|
G|----12---------------------------------------12-14~-(12)b14-12--12-14-14|
D|-15----14-----------------------------------------------------14--------|
A|------------------------------------------------------------------------|
E|------------------------------------------------------------------------|
 |
 |3:46
E|------------------------------------------------------------------------|
B|------------------------------------------------------------------------|
G|--------------9----------------------15-15-15-17-15-19---19b21--r19-17--|
D|--10-10-10-12---12---10-12---14-15--------------------------------------|
A|------------------------------------------------------------------------|
E|------------------------------------------------------------------------|
 |
 |4:00
E|------------------------------------------------------------------------|
B|------------------------------------------------------------------------|
G|--7-9--9-10-7------7---9------9-9h10-9p7-9--------9-7------7-9-7--------|
D|----------------10-------7----------------10---10------10-------10-10---|
A|------------------------------------------------------------------------|
E|------------------------------------------------------------------------|
 |
 |4:14
E|------------------------------------------------------------------------|
B|------------------------------------------------------------------------|
G|--7-9--9-10-7------7---9------9-9h10-9p7-9--------9-7-------------------|
D|----------------10-------7----------------10---10-----------------------|
A|------------------------------------------------------------------------|
E|------------------------------------------------------------------------|




comments
We did not receive enough feedback on this tab! Please rate:
print report bad tab
1 2 3 4 5
I want to post or [tab]
guest
You may want to rate the tab now too:
select rating
Please do not post tabs as comments. Select "correction" instead!