Oops, an error
Loading. Please wait.

Forever Angel Tab

version 1
version 1

Acoustic

Interactive

19,884 views 33 this week
no commentswrite comment
1 2 3 4 5
x 9
add to favorites
launch autoscroll
font size
0
reset
how to read this tab
guitar tuner
Autoscroll
slow
fast
+/-
esc
set tempo
stop
Author
Difficulty
Tuning
novice
D# G# C# F# A# D#
Tuning (this tab): Half-Step Down Tab difficulty: novice

Tabbed by MikköDLM
Tune down 1/2 step.

[Intro]
Em  C
Em  G D

[Verse 1]
Em                  C
   You were born on judgement day
Em                        G           D
   But you don't care and go your own way
Em                               C
   Your living your life and you made your own laws
Em                          G            D
   Fellowship forever, your freeing your souls

[Chorus]
C
   Riding with the brothers
               G            D
   Through the wind and the rain
C
   You're proud of your color
           G       D
   And can feel no pain

Em    C    G       D
   Forever angel
Em         C          G              D
   Keep on riding and fight for your rights
Em    C    G       D
   Forever angel
Em         C               G       D
   Roaring thunder through endless nights
           Em
   Endless nights

D#|------------------------------------------------------------------------|
A#|-----7-8/10--8-------------7-8-8-10/12--10--8-7-------------------------|
F#|--9------------9-7-7/9---9---------------------7--7/9-------------------|
C#|------------------------------------------------------------------------|
G#|------------------------------------------------------------------------|
D#|------------------------------------------------------------------------|

D#|-7-8-10-8-7-------------------------------------------------------------|
A#|-------------10-8-7--------7-8--8-10--10/12--10/8--8/10-----------------|
F#|-------------------9----9-----------------------------------------------|
C#|------------------------------------------------------------------------|
G#|------------------------------------------------------------------------|
D#|------------------------------------------------------------------------|

D#|-----------------------------------|
A#|--8-7------------------------------|
F#|-------9-7--7/9--------------------|
C#|-----------------------------------|
G#|-----------------------------------|
D#|-----------------------------------|

C   Em  G D
Em  C   Em  G D

[Verse 2]
Em                                C
   Sometimes it seems that you're dancing with the devil
Em                            G                    D
   And you recognize that the price for freedom is high
Em                              C
   The brotherhood in your life is your highest call
Em                         G                   D
   You're the chosen ones, all for one and for all

[Chorus]
C
   Riding with the brothers
               G            D
   Through the wind and the rain
C
   You're proud of your color
           G       D
   And can feel no pain

   Feel no pain

Em    C    G       D
   Forever angel
Em         C          G              D
   Keep on riding and fight for your rights
Em    C    G       D
   Forever angel
Em         C               G       D
   Roaring thunder through endless nights

C
   Riding with the brothers
               G            D
   Through the wind and the rain
C
   You're proud of your color
           D
   And can feel no pain
                 Em
   I can feel no pain

D#|------------------------------------------------------------------------|
A#|----8------8---------------------------7-8--10--10/12--10/8--8/10-------|
F#|--9---9--9---5-5--5-7-7/9--7-5-4---7/9----------------------------------|
C#|------------------------------------------------------------------------|
G#|------------------------------------------------------------------------|
D#|------------------------------------------------------------------------|

D#|-10-10/12--10--10/12---10-----------------------------------------------|
A#|---------------------------12---12--12/13--12--10-----------------------|
F#|----------------------------------------------------12--9---------------|
C#|------------------------------------------------------------------------|
G#|------------------------------------------------------------------------|
D#|------------------------------------------------------------------------|

D#|--12-12--14-15--/17---15-14---------------------------------------------|
A#|-----------------------------15---13-12--------5-5--7-8-7-5-------------|
F#|-----------------------------------------14-----------------4---5-4-2---|
C#|------------------------------------------------------------------------|
G#|------------------------------------------------------------------------|
D#|------------------------------------------------------------------------|

D#|-------------------------------8--8/10--7-------------------------------|
A#|----------7----8--8/10--8-----------------8--8/10--10/12--10--8---------|
F#|---7-7/9----9--------------9-------------------------------------9------|
C#|------------------------------------------------------------------------|
G#|------------------------------------------------------------------------|
D#|------------------------------------------------------------------------|

Em    C    G       D
   Forever angel
Em         C          G              D
   Keep on riding and fight for your rights
Em    C    G       D
   Forever angel
Em         C               G       D
   Roaring thunder through endless nights

Em    C    G       D
   Forever angel     (forever)
Em         C          G              D
   Keep on riding and fight for your rights
Em    C    G         D    Em
   Forever angel (forever angel)
           C               G       D
   Roaring thunder through endless nights

[Outro]
        Em
Forever angel
Suggest correction
comments
print report bad tab
guest
You may want to rate the tab now too:
select rating
Wanna post a correction for this tab? Suggest correction