Oops, an error
Loading. Please wait.

Live For The King Tab

855 views 1 this week
no commentswrite comment
1 2 3 4 5
please rate
add to favorites
launch autoscroll
font size
0
reset
how to read this tab
guitar tuner
Tab Pro tools
  • play this tab
  • loop segment
  • change instrument
  • show fretboard
  • metronome
Autoscroll
slow
fast
+/-
esc
set tempo
stop
Contributor
Axel Rudi Pell
Live For The King
From the album: "Shadow Zone"

All comments are very welcome so don't hesitate to send them to my e-mail.

------------------------------------------------------------------------------------------
Guitar tuned Eb		Tabbed by rockman85(rockman85_at_jippii.fi) _at_ = @

There are only keyboards playing and Johnny singing when song starts.


Intro solo:					(1:10)
e--------------------------------------------------------|
 -------------------12-12--------------------------------|
 -----7b--7-7-7-7b---------12-10-9-----------------7b----|
 ---7--------------------------------10-9-7---5-7------9-|
 --------------------------------------------------------|
E--------------------------------------------------------|

e--------------------------------------------------------|
 ----------------15b-13-12-12-12h13p12-12----------------|
 -15b-14-12-14-----------------------------12-14---------|
 --------------------------------------------------------|
 --------------------------------------------------------|
E--------------------------------------------------------|


e----------------------------------------------------------|
 ------------------12-12-----------------------------------|
 --9-7-5-7b--5-7---------12-10-9---------------------------|
 --------------------------------10-9-7/-------------------|
 ----------------------------------------------------------|
E----------------------------------------------------------|

After intro solo Keyboards and Johnny are together again until the riff 1 starts.

Riff 1:						(2:55)
e--------------------------------------------------------|
 --------------------------------------------------------|
 ---5---5---5----5-4--------5----5----5----5/7-7-7/4-4---|
 ---7---7---7----7-5--------7----7----7----7/9-9-9/5-5---|
 ----00--00--00---------------00---00--------------------|
E--------------------------------------------------------|
   [..................]    [...........................]
	play 3 times          Then this once


Riff 2:
e--------------------------------------------------------------------------|
 --------------------------------------------------------------------------|
 ---5----5----5----5-4----5----5-----4---4------5-----5------5------5-4----|
 ---7----7----7----7-5----7----7-----5---5------7-----7------7------7-5----|
 -----00---00---00----------00---00----00----00----00-----00----00---------|
E--------------------------------------------------------------------------|
   [..................]   [.............................................]
    Play twice              Then this once

Bridge:
e-------------------------------------------------------------|
 -------------------------------------------------------------|
 -------------------------------------------------------------|
 ---9----7-9---------9-7-10-7---9--7-9------9-7-10-7----------|
 ---7----5-7---xx----7-5--8-5---7--5-7--xx--7-5--8-5----------|
E--------------xx-----------------------xx--------------------|
Not sure about this part but it's something like that


Chorus:
e-----------------------------------------------------------|
 -----------------------------------------------------------|
 ---5---------5---------------------------------------------|
 ---5-5--7--3-5--5---5-7-7-5-7-7----------------------------|
 ---3-5--7--3-3--5---5/7-7-5/7-7----------------------------|
E-----3--5--1----3---3/5-5-3/5-5----------------------------|

Before riff 3 end with this:
e-----------------------------------------------------------|
 -----------------------------------------------------------|
 ---5--------5-------9--------------------------------------|
 ---5-5-7-3--5--5-7--9--------------------------------------|
 ---3-5-7-3--3--5-7--7--------------------------------------|
E-----3-5-1-----3-5-----------------------------------------|


Riff 3:
e--------------------------------------------------------|
 --------------------------------------------------------|
 --------------------------------------------------------|
 ----5-5-5-5-5/--5-5-5-4-4-5-5---8-7-5-4-----------------|
 ----7-7-7-7-7/--7-7-7-5-5-7-7--10-9-7-5-----------------|
E--------------------------------------------------------|


Solo:
not available but it's quite simple

Play the chorus riff under the solo


The song:

Intro solo 1x (1:10)
Riff 1 2x     (2:55)
Riff 2 2x
Bridge 1x
Chorus 2x
Riff 1 1x
Riff 2 2x
Bridge 1x
Chorus 2x
Before riff 3 1x
Riff 3 4x (Under the solo play 2 more times)
Solo (Chorus riff under the rest of solo)
Chorus riff until fades
comments
We did not receive enough feedback on this tab! Please rate:
print report bad tab
1 2 3 4 5
I want to post or [tab]
guest
You may want to rate the tab now too:
select rating
Please do not post tabs as comments. Select "correction" instead!