Oops, an error
Loading. Please wait.

Under The Gun Tab

version 1
version 1

Whole song

Interactive

685 views 1 this week
no commentswrite comment
1 2 3 4 5
please rate
add to favorites
launch autoscroll
font size
0
reset
how to read this tab
guitar tuner
Autoscroll
slow
fast
+/-
esc
set tempo
stop
Help us to improve Ultimate-Guitar.com Take our survey!
×
Author
		Axel Rudi Pell
		Under The Gun
	  From the album: "Shadow Zone"
------------------------------------------------------------------------------------
		Guitar tuned: Eb

Tabbed by: rockman85 (rockman85@jippii.fi)

Listen the song for timing and to find how many times
to play parts!!


Intro:
First play this 3 times	      Then end with this:
e----------------------------I----------------------------|
-----------------------------I----------------------------|
-----------------------------I----------------------------|
----7h9-11()-9()-7()---------I 7h9-11()-9()--66/77()------|
-----------------------------I----------------------------|
E----------------------------I----------------------------|

Riff2:   Two times:		Then this:

e-----------------------------I------------------------------------|
------------------------------I------------------------------------|
------------------------------I------------------------------7--9--|
------7-7--7-7--7---2-2--4----I--7-7--7-7--7--9-9--4--4--7---7--9--|
------7-7--7-7--7---2-2--4----I--7-7--7-7--7--9-9--4--4--7---5--7--|
E-----5-5--5-5--5---0-0--2----I--5-5--5-5--5--7-7--2--2--5---------|

Chorus:		  First time end with this:  Second time Part I + end with Part II:

e-----------------I---------------------I-----------------------|
------------------I---------------------I-----------------------|
------------------I---------------------I-----------------------|
--------7()--2()--I--------4()---9()----I-11()------------------|
--------7()--2()--I--------4()---9()----I-11()------------------|
E-------5()--0()--I--------2()---7()----I--9()------------------|
 two times			Part I		part II


Solo: (3:35)

e----------------------------------------------------------------|
-----------------------------12b--10h12-12-----------------------|
-----------------------------------------------------------------|
----------------------12-11--------------------------------------|
----9-9h12-11--9-9h12-----------------------10-10h12-12-11-9-----|
E----------------------------------------------------------------|

e----------------------------------------------------------------|
-----------10h12-14-12-10h12-12-17b-17-15-14-14h15--17-----------|
---16b-14--------------------------------------------------------|
-----------------------------------------------------------------|
-----------------------------------------------------------------|
E----------------------------------------------------------------|

e----------------------------------------------------------------|
---19-19b-19-19-17-17b-17--19-19b--19-17--19h20-19-17------------|
-----------------------------------------------------------------|
-----------------------------------------------------------------|
-----------------------------------------------------------------|
E----------------------------------------------------------------|
I'm not sure the solo is 100% correct but let me know if there
are some mistakes.

Melody:
e----------------------------------------------------------------|
-----------------------------------------------------------------|
-----------------------------------------------------------------|
-----------------------------------------------------------------|
---9-9/11-12-11-9-7-9-7-9-12-11-9-9()-9/11-12-12-14--------------|
E----------------------------------------------------------------|


(2nd guitar plays higher notes at the same time)


Ending solo:

e--------------------------------------------------------------------|
---------------------------------------------------------------------|
-----------------------9/11-11-11-9-11-16b(16)-14-16-16--------------|
-7/11()/--7/-9-9()---------------------------------------14/16 16 16-|
---------------------------------------------------------------------|
E--------------------------------------------------------------------|


e--------------------------------------------------------------------------|
---------------------------------------------------------------------------|
---------------------------------------------------------------------------|
-------------------7/9-9-11-9/---7/9-9-9-7-9--9/11-11-11-9-----------------|
-14/16-16 14 14()---------------------------------------------7/11-9-9/----|
E--------------------------------------------------------------------------|

---------------------------------------------------------------------------------

Song goes:

Intro solo
verse (no guitars)
Intro
Riff 2
Chorus
Intro
Verse (no guitars)
Chorus
Solo
Chorus
Ending solo

After ending solo Axel plays something with wah-wah.....

() = let ring
b = bend
/ = slide
h = hammer on
Suggest correction
Give kudos to tab author, rate the tab!
1 2 3 4 5
comments
print report bad tab
guest
You may want to rate the tab now too:
select rating
Wanna post a correction for this tab? Suggest correction