Oops, an error
Loading. Please wait.

Cold bass

version 1
version 1

Whole song

Interactive

3,803 views 1 this week
no commentswrite comment
1 2 3 4 5
x 3
add to favorites
×
Save as Personal and add changes to this tab that will be seen only by you. Learn more ›
×
You can save this tab as Personal to edit and correct it or add notes. All changes will be seen only by you. Learn more »
launch autoscroll
font size
0
reset
guitar tuner
backing track
0:00
0:00
edit
Autoscroll
slow
fast
+/-
esc
set tempo
stop
http://axewounduk.tumblr.com/

Intro/Chorus (Whole Thing Twice)
F|----------------------------------------------------------------------|
C|----------------------------------------------------------------------|
G|5-5-55--55-5-55--55-5-55--55-5-55--8-8-88--88-8-88--88-8-88--88-8-88--|
C|----------------------------------------------------------------------|

F|----------------------------------------------------------------------|
C|----------------------------------------------------------------------|
G|1-1-11--11-1-11----11-1-11----11-1-11----8-8-88--88-8-88--7-7-77--8--7|
C|----------------------------------------------------------------------|

Verse X4 (Rhythm is very simple)
F|----------------|
C|----------------|
G|----------------|
C|00000-0000000000|

Pre Chorus (Listen Carefully this is what he actually plays)
F|-------------------------------------------------------------------|
C|-------------------------------------------------------------------|
G|1--1--1--1--5555-1--1--1--1--8888-1--1--1--1--5555-----------------|
C|-00-00-00-00------00-00-00-00------00-00-00-00-----000-000-000-000-|

Chorus (Just once this time)
F|----------------------------------------------------------------------|
C|----------------------------------------------------------------------|
G|5-5-55--55-5-55--55-5-55--55-5-55--8-8-88--88-8-88--88-8-88--88-8-88--|
C|----------------------------------------------------------------------|

F|----------------------------------------------------------------------|
C|----------------------------------------------------------------------|
G|1-1-11--11-1-11----11-1-11----11-1-11----8-8-88--88-8-88--7-7-77--8--7|
C|----------------------------------------------------------------------|

Verse X2 
F|----------------|
C|----------------|
G|----------------|
C|00000-0000000000|

Pre Chorus
F|-------------------------------------------------------------------|
C|-------------------------------------------------------------------|
G|1--1--1--1--5555-1--1--1--1--8888-1--1--1--1--5555-----------------|
C|-00-00-00-00------00-00-00-00------00-00-00-00-----000-000-000-000-|

Chorus (Twice this time)
F|----------------------------------------------------------------------|
C|----------------------------------------------------------------------|
G|5-5-55--55-5-55--55-5-55--55-5-55--8-8-88--88-8-88--88-8-88--88-8-88--|
C|----------------------------------------------------------------------|

F|----------------------------------------------------------------------|
C|----------------------------------------------------------------------|
G|1-1-11--11-1-11----11-1-11----11-1-11----8-8-88--88-8-88--7-7-77--8--7|
C|----------------------------------------------------------------------|

Post Chorus
F|----------|
C|----------|
G|----------|
C|0~~~~~~~~~|

Breakdown Pt.1 (Three Times)
F|------------------------|
C|------------------------|
G|------------------------|
C|000-0000-000-0000-00-00-|

Breakdown Pt.2 (Once) (Work out the amount of opens he plays here by listening to the song)
F|-----------|
C|-----------|
G|-----------|
C|00000000000|

Pre Chorus
F|-------------------------------------------------------------------|
C|-------------------------------------------------------------------|
G|1--1--1--1--5555-1--1--1--1--8888-1--1--1--1--5555-----------------|
C|-00-00-00-00------00-00-00-00------00-00-00-00-----000-000-000-000-|

Chorus (Twice this time)
F|----------------------------------------------------------------------|
C|----------------------------------------------------------------------|
G|5-5-55--55-5-55--55-5-55--55-5-55--8-8-88--88-8-88--88-8-88--88-8-88--|
C|----------------------------------------------------------------------|

F|----------------------------------------------------------------------|
C|----------------------------------------------------------------------|
G|1-1-11--11-1-11----11-1-11----11-1-11----8-8-88--88-8-88--7-7-77--8--7|
C|----------------------------------------------------------------------|

Breakdown Pt.1 (Three Times)
F|------------------------|
C|------------------------|
G|------------------------|
C|000-0000-000-0000-00-00-|

Breakdown Pt.3 (Once) 
F|---------------------------------------------------|
C|---------------------------------------------------|
G|---------------------------------------------------|
C|000-0000-000-0000-000-0000-000-0000-000-0000-00-00-|

Breakdown Pt.1 (Twice)
F|------------------------|
C|------------------------|
G|------------------------|
C|000-0000-000-0000-00-00-|

Outro
F|------------------|
C|------------------|
G|------------------|
C|000-0000-000-0000-|

            
            
Suggest correction
Creating personal tab
Creating personal tab
You can edit any tab online and save it as your Personal.

You can edit, replace or remove any tab part or add personal notes – all changes will be seen only by you.

Personal tabs can be accessed anytime from any device, even offline.
Learn more »
Give kudos to tab author, rate the tab!
1 2 3 4 5
comments
print report bad tab
guest
You may want to rate the tab now too:
select rating
Wanna post a correction for this tab? Suggest correction