Oops, an error
Loading. Please wait.

Cold Tab

version 1
version 1

Whole song

Interactive

4,403 views 12 this week
no commentswrite comment
1 2 3 4 5
excellent!
x 6
add to favorites
launch autoscroll
font size
0
reset
how to read this tab
guitar tuner
Tab Pro tools
  • play this tab
  • loop segment
  • change instrument
  • show fretboard
  • metronome
×
Best way to learn
"Cold"
Autoscroll
slow
fast
+/-
esc
set tempo
stop
Contributor
Difficulty
Tuning
novice
B F# B E G# C#
Tuning: B F# B E G# C#

DOMB1996
I've been waiting for a year now since nobody tab this. I've done it totally all by myself.

Tuning: B F# B E G# C#
Axewound - Cold

Intro TWICE/ Chorus

Matt (Rhythm)

C#|------------------------------------------------------------|
G#|------------------------------------------------------------|
E |-7----------10---------15--------10---------9---------------|
b |-X-32times--X-32times--X-32times--X-16times-X-16times-------|       
F#|-5----------8----------13---------8---------7---------------|      
B |------------------------------------------------------------|
                                                                  
Verse 1                                                             
C |----------------------------------------------------------|
G#|----------------------------------------------------------|
E |----------------------------------------------------------|
b |----------------------------------------------------------| 
F#|-0000--0---0000--0--5h8p5p0---------0000--0---0000---0000-| \   
B |-0000--0---0000--0----------5h8p5p0-0000--0---0000---0000-|  \  
    ....  .   ....  .                  ....  .   ....   ....     \  THRICE
                                                                 /
B||8\7\6\5\4\3\2\1----/5-----8~~|   (Low B)                     /
                                                              
C#|------------|
G#|------------|
E |-8----10----|
b |-X-----X----|
F#|-6-----8----|
B |------------|

Pre-chorus

C#|----------------------------------------------------|
G#|-2-------------------------------2------------------|
E |-7-12times-7-7-7-7---------------7-12times----------|
B |-----------X-X-x-X-----TWICE---------------7777-----|
F#|-----------5-5-5-5-------------------------5555-----|
B |----------------------------------------------------|

C#|-------------------------------------------------------|
G#|-------------------------------------------------------|
E |-------------------------------------------------------|
B |-------------------------------------------------------|
F#|---------1---------------0------5h8p5p0----------------|
B |-1--0--0---0--0--1--0--0-.--0--0---------5h8p5p0-------|

       .  .   .  .     .  .     .  .

Chorus


Verse 2
F#|-0000--0---0000--0--5h8p5p0---------0000--0---0000---0000-|  \   
B |-0000--0---0000--0----------5h8p5p0-0000--0---0000---0000-|   \  
    ....  .   ....  .                  ....  .   ....   ....      \  Twice
                                                                  /
B||8\7\6\5\4\3\2\1----/5-----8~~|    (LOW B)                     /

Pre-chorus & chorus

Bridge 2:30

C#|-----------------------------------------------------------|
G#|-----------------------------------------------------------|
E |-----------------------------------------------------------|
b |-----------------------------------------------------------|
F#|-0~~~~~~~~~~~~~~~~~~~~~~~~~--------------------------------|
B |-0~~~~~~~~~~~~~~~~~~~~~~~~~--------------------------------|

Breakdown
C#|--------------------------------------------|
G#|--------------------------------------------|
E |--------------------------------------------|
b |--------------------------------------------|
F#|-0000-0000----0000~~---0000--00--00---TWICE-|
B |-0000-0000----0000~~---0000--00--00---------|
    .... ....    ....     ....  ..  ..

C#|-----------------------------------------------------------|
G#|-----------------------------------------------------------|
E |-----------------------------------------------------------|
b |-----------------------------------------------------------|
F#|-000--0---000--00---000--0~~---000--0---0--0~~---0--0~~----|
B |-000--0---000--00---000--0~~---000--0---0--0~~---0--0~~----|
    ...  .   ...  ..   ...  .     ...  .   .  .     .  .

B|-1p0-00--00-5p0--0000-7p0--0000--5p0--0000-------------------| (Low B)
       ..  ..      ....      ....       ....

Pre-chorus & chorus

Outro (Listen it's just the palm mutes of zeros & you'll get the beat)


Mike(Lead)

Intro Twice/ Chorus
C#|-------------------------------------------------------------------------|
G#|-------------------------------------------------------------------------|
E |-------------------------------------------------------------------------|
b |-------------------------------------------------------------------------|
F#|0000000000-20times--(Turn to 3's & 8's same thing)-8888888888-77777-10-7-|
B |0000000000-----------------------------------------7777777777-77777-10-7-|
     . .  . .                                           . . .  .   . .


Same as Matt of the verse

Pre-chorus
C#|----------------------------------------------------------|
G#|----------------------------------------------------------|
E |----------------------7777-----------------------10101010-|
b |------3----------3----xxxx-------3----------3----x-x-x-x--|
F#|1-----1----1---- 1----5555-1-----1----1-----1----8-8-8-8--|
B |1--00---00-1--00---00------1--00---00-1--00---00----------|
      ..   ..    ..   ..         ..   ..    ..   ..            

C#|---------------------------------------------------------------|
G#|---------------------------------------------------------------|
E |---------------------------------------------------------------|
b |------3-----------3----7777------------------------------------|      
F#|1-----1-----1-----1----5555--------1---------5h8p5p0-----------|
B |1--00---00--1--00---00-------1-0-0---0-0-1-0---------5h8p5p0---|
      ..   ..     ..   ..         . .   . .   .

Chorus, verse, pre-chorus, chorus

Then bridge & breakdown exactly like Matt then pre-chorus, chorus and outro.

Don't worry outro is just like Matt.


Enjoy! ;) any errors please comment, I'll try to fix it.        

& screw the F*ckers that never help to tab this amazing song.
comments
print report bad tab
I want to post or [tab]
guest
You may want to rate the tab now too:
select rating
Please do not post tabs as comments. Select "correction" instead!