Oops, an error
Loading. Please wait.

Exochrist Tab

version 1
version 1

Whole song

Interactive

5,881 views 3 this week
1 commentread comment
1 2 3 4 5
excellent!
x 3
add to favorites
launch autoscroll
font size
0
reset
how to read this tab
guitar tuner
Autoscroll
slow
fast
+/-
esc
set tempo
stop
Help us to improve Ultimate-Guitar.com Take our survey!
×
Author
Difficulty
Tuning
intermediate
C G C F A D
-----------------------------------------------------------------------------
                            Axewound - Exorchrist
-----------------------------------------------------------------------------

Tabbed by: Metalrock4ever

Tuning: CGCFAD

The title is meant to be Exorchrist, not Exochrist... Sorry...

Intro:
D|-----------------------------|
A|-----------------------------|
F|-----------------------------|
C|-4-0-2~-7-2-4~-4-0-2~-7-9-4~-|  x2
G|-4-0-2~-7-2-4~-4-0-2~-7-9-4~-|
C|-4-0-2~-7-2-4~-4-0-2~-7-9-4~-|

Solo Part 1:
D|-9-7------9-7-------9-7------------------|
A|-----9--------9-10~-----9----------------|
F|-------9~-----------------9~-------------|
C|-----------------------------11-9--------|
G|----------------------------------11-12~-|
C|-----------------------------------------|

Solo Part 2:
D|-------------------------------------|
A|-------------------------------------|
F|-6-4------6-4------6-4---------------|
C|-----6--------6-7~-----6-------------|
G|-------7~----------------7~-4-2------|
C|--------------------------------6-7~-|


Pre-Verse:
(Listen to music for rhythm)
D|-----------------------------------------------------------------|
A|-----------------------------------------------------------------|
F|---------------------------------------------------------9-7-6---|
C|-4x4x4x4x-4x4x4x4x-7-6---9-7-6---4x4x4x4x-4x4x4x4x-7-6---------7-|
G|-4x4x4x4x-4x4x4x4x-----7-------7-4x4x4x4x-4x4x4x4x-----7---------|
C|-4x4x4x4x-4x4x4x4x---------------4x4x4x4x-4x4x4x4x---------------|


Verse:
(Listen to music for the rhythm)
D|-------------------------------------------------------------|
A|-------------------------------------------------------------|
F|-------------------------------------------------------------|
C|-4x4x4x4x-4x4x---7-6---9-7-6---4x4x4x4x-4x4x-----------------|
G|-4x4x4x4x-4x4x-------7-------7-4x4x4x4x-4x4x-----------------|
C|-4x4x4x4x-4x4x-----------------4x4x4x4x-4x4x--0h2-0h2-0h2-5~-|

D|-----------------------------------------------------------------|
A|-----------------------------------------------------------------|
F|---------------------------------------------------------9-7-6---|
C|-4x4x4x4x-4x4x4x4x-7-6---9-7-6---4x4x4x4x-4x4x4x4x-7-6---------7-|
G|-4x4x4x4x-4x4x4x4x-----7-------7-4x4x4x4x-4x4x4x4x-----7---------|
C|-4x4x4x4x-4x4x4x4x---------------4x4x4x4x-4x4x4x4x---------------|

D|-------------------------------------------------------------|
A|-------------------------------------------------------------|
F|-------------------------------------------------------------|
C|-4x4x4x4x-4x4x---7-6---9-7-6---4x4x4x4x-4x4x-----------------|
G|-4x4x4x4x-4x4x-------7-------7-4x4x4x4x-4x4x-----------------|
C|-4x4x4x4x-4x4x-----------------4x4x4x4x-4x4x--0h2-0h2-0h2-5~-|

D|-----------------------------------------------------------------|
A|-----------------------------------------------------------------|
F|---------------------------------------------------------9-7-6---|
C|-4x4x4x4x-4x4x4x4x-7-6---9-7-6---4x4x4x4x-4x4x4x4x-7-6---------7-|
G|-4x4x4x4x-4x4x4x4x-----7-------7-4x4x4x4x-4x4x4x4x-----7---------|
C|-4x4x4x4x-4x4x4x4x---------------4x4x4x4x-4x4x4x4x---------------|


Pre-Chorus:
D|---------------------|
A|---------------------|
F|---------------------|
C|-4444-4444-4444-4444-|
G|-4444-4444-4444-4444-|
C|-4444-4444-4444-4444-|


Chorus:
D|-----------------------------|
A|-----------------------------|
F|-----------------------------|
C|-4-0-2~-7-2-4~-4-0-2~-7-9-4~-|  
G|-4-0-2~-7-2-4~-4-0-2~-7-9-4~-|
C|-4-0-2~-7-2-4~-4-0-2~-7-9-4~-|


Pre-Verse:
D|-----------------------------------------------------------------|
A|-----------------------------------------------------------------|
F|---------------------------------------------------------9-7-6---|
C|-4x4x4x4x-4x4x4x4x-7-6---9-7-6---4x4x4x4x-4x4x4x4x-7-6---------7-|
G|-4x4x4x4x-4x4x4x4x-----7-------7-4x4x4x4x-4x4x4x4x-----7---------|
C|-4x4x4x4x-4x4x4x4x---------------4x4x4x4x-4x4x4x4x---------------|


Verse 2:
(Listen to music for the rhythm)
D|-------------------------------------------------------------|
A|-------------------------------------------------------------|
F|-------------------------------------------------------------|
C|-4x4x4x4x-4x4x---7-6---9-7-6---4x4x4x4x-4x4x-----------------|
G|-4x4x4x4x-4x4x-------7-------7-4x4x4x4x-4x4x-----------------|
C|-4x4x4x4x-4x4x-----------------4x4x4x4x-4x4x--0h2-0h2-0h2-5~-|

D|-----------------------------------------------------------------|
A|-----------------------------------------------------------------|
F|---------------------------------------------------------9-7-6---|
C|-4x4x4x4x-4x4x4x4x-7-6---9-7-6---4x4x4x4x-4x4x4x4x-7-6---------7-|
G|-4x4x4x4x-4x4x4x4x-----7-------7-4x4x4x4x-4x4x4x4x-----7---------|
C|-4x4x4x4x-4x4x4x4x---------------4x4x4x4x-4x4x4x4x---------------|

D|-------------------------------------------------------------|
A|-------------------------------------------------------------|
F|-------------------------------------------------------------|
C|-4x4x4x4x-4x4x---7-6---9-7-6---4x4x4x4x-4x4x-----------------|
G|-4x4x4x4x-4x4x-------7-------7-4x4x4x4x-4x4x-----------------|
C|-4x4x4x4x-4x4x-----------------4x4x4x4x-4x4x--0h2-0h2-0h2-5~-|

D|-----------------------------------------------------------------|
A|-----------------------------------------------------------------|
F|---------------------------------------------------------9-7-6---|
C|-4x4x4x4x-4x4x4x4x-7-6---9-7-6---4x4x4x4x-4x4x4x4x-7-6---------7-|
G|-4x4x4x4x-4x4x4x4x-----7-------7-4x4x4x4x-4x4x4x4x-----7---------|
C|-4x4x4x4x-4x4x4x4x---------------4x4x4x4x-4x4x4x4x---------------|


Pre-Chorus:
D|---------------------|
A|---------------------|
F|---------------------|
C|-4444-4444-4444-4444-|
G|-4444-4444-4444-4444-|
C|-4444-4444-4444-4444-|

Solo Part:
(I'm not sure that I got all the notes)
|-------------------------------|
|-------------------------------|
|-------------------------------|   x2
|-4h5-4h5-4h5-7-4h5-4h5-4h5-7---|
|-----------------------------5-|  <- optional note
|-------------------------------|


Chorus 2:
D|-----------------------------|
A|-----------------------------|
F|-----------------------------|
C|-4-0-2~-7-2-4~-4-0-2~-7-9-4~-|  
G|-4-0-2~-7-2-4~-4-0-2~-7-9-4~-|
C|-4-0-2~-7-2-4~-4-0-2~-7-9-4~-|


Bridge Part 1:
(Start of palm muted, and then release it near the end. Keep playing until the singer comes in.)
D|-----------------------------|
A|-----------------------------|
F|-----------------------------|
C|-----------------------------|
G|-----------------------------|
C|-4h5-4h5-4h5-7-4h5-4h5-4h5-7-|

Solo Part:
D|----6~-|
A|-------|
F|-------|
C|-4~----|
G|-------|
C|-------|

Bridge Part 2:
D|--------------------------------------------------|
A|--------------------------------------------------|
F|--------------------------------------------------|
C|-4-5-4-2-4-2-4-5-4-0-0-0--4-5-4-2-4-2-4-5-4-x-x-x-|  x2
G|-4-5-4-2-4-2-4-5-4-0-0-0--4-5-4-2-4-2-4-5-4-x-x-x-|
C|-4-5-4-2-4-2-4-5-4-0-0-0--4-5-4-2-4-2-4-5-4-x-x-x-|  <- natural harmonics

D|-------|
A|-------|
F|-------|
C|-0~-2~-|
G|-0~-2~-|
C|-0~-2~-|


Final Chorus:
D|-----------------------------|
A|-----------------------------|
F|-----------------------------|
C|-4-0-2~-7-2-4~-4-0-2~-7-9-4~-|  x2
G|-4-0-2~-7-2-4~-4-0-2~-7-9-4~-|
C|-4-0-2~-7-2-4~-4-0-2~-7-9-4~-|


Outro:
D|-----------------------------------------------------------------|
A|-----------------------------------------------------------------|
F|---------------------------------------------------------9-7-6---|
C|-4x4x4x4x-4x4x4x4x-7-6---9-7-6---4x4x4x4x-4x4x4x4x-7-6---------7-|  x2
G|-4x4x4x4x-4x4x4x4x-----7-------7-4x4x4x4x-4x4x4x4x-----7---------|
C|-4x4x4x4x-4x4x4x4x---------------4x4x4x4x-4x4x4x4x---------------|


End on:
D|--------|
A|--------|
F|--------|
C|-4-4-44-|
G|-4-4-44-|
C|-4-4-44-|

************************************

| /   slide up
| \   slide down
| h   hammer-on
| ~   vibrato
| +   harmonic
| x   Mute note

************************************

If you have any comments/corrections, please say in either the comments box or leave me 
a message.
Good luck and enjoy!
Suggest correction
Give kudos to tab author, rate the tab!
1 2 3 4 5
comments
print report bad tab
1 comment total.
0 reply
MetalRock4ever 1,338 wrote on September 30 2012, 03:39 pm

The song is actually called Exorchrist (with an 'r' after Exo), not Exochrist.

guest
You may want to rate the tab now too:
select rating
Please do not post tabs as comments. Select "correction" instead!