Oops, an error
Loading. Please wait.

Post Apocalyptic Party tab

3,642 views 6 this week
4 commentsread comments
1 2 3 4 5
x 6
add to favorites
×
Save as Personal and add changes to this tab that will be seen only by you. Learn more ›
×
You can save this tab as Personal to edit and correct it or add notes. All changes will be seen only by you. Learn more »
launch autoscroll
font size
0
reset
how to read this tab
guitar tuner
edit
Autoscroll
slow
fast
+/-
esc
set tempo
stop
Axewound - Post Apocalyptic Party

Drop A

Thanks To DarkenedShadow for the verse :-)
Credits to him. Cheers


Verse:

A|------------------------------------------------------------------|
E|--------------------------3-5/6\5-3-5-----------------------------|
A|--3///6--0000--6\\\3--00--3-5/6\5-3-5--3///6--0000--6\\\3--00-----|  x4
           ****         **                      ****         **

A|---------------------------5-7/8\7-5-7--|
E|---------------------------3-5/6\5-3-5--|
A|---3///6--0000--6\\\3--00---------------|  before pre-chorus


pre-chorus

B|---------------------------------------------|
F#|--------------------------------------------|
D|---------------------------------------------|
A|-33333333------11111111----------------------|
E|-33333333------11111111----------------------|
A|-33333333------11111111----------------------|
   ........      ........

Chorus

B|---------------------------------------|
F#|--------------------------------------|
D|-7-------------------------------------|
A|-7-six--8------10-------5-4-3-2-1-2----| twice
E|-5------8-six--10--six--5-4-3-2-1-2----|
A|--------6------8--------5-4-3-2-1-2----|


before outro "This is our final countdown"

B|----------------------------------------------------|
F#|---------------------------------------------------|
D|----------------------------------------------------|
A|---0~---0~----0~----0-------------------------------|
E|---0~---0~----0~----0-------------------------------|
A|---0~---0~----0~----0-------------------------------|



I believe the outro is this:

OUTRO part "Til we Diiieeeee!!!"

Both guitars

B  |------------------------------|
F# |------------------------------|
D  |------------------------------|
A  |------------------------------|    7 times
E  |------------------------------|
A  |1^~~-HALF-BEND-000-0-000-0----|
                   ...   ...

B  |------------------------------------------------------------------|
F# |------------------------------------------------------------------|
D  |------------------------------------------------------------------|
A  |------------------------------------------------------------------|
E  |------------------------------------------------------------------|
A  |1^~~-HALF-BEND-000-0-000-0-----12//---1^~~-HALF-BEND-000-0-000-0--|
                   ...   ...                             ...   ...

B  |-------------------------------------------------------------------|
F# |-------------------------------------------------------------------|
D  |-------------------------------------------------------------------|
A  |----------------------------3*3*3*3*-------------------------------|
E  |----------------------------3*3*3*3*-------------------------------|
A  |1^~~-HALF-BEND-000-0-000-0-------------1^~~-HALF-BEND-000-0-000-0--|
                   ...   ...                              ...   ...

B  |----------------------------------------------------------------------|
F# |----------------------------------------------------------------------|
D  |----------------------------------------------------------------------|
A  |----------------------------------------------------------------------|
E  |----------------------------------------------------------------------|
A  |1^~~-HALF-BEND-000-0-000-0---1^--FULL-BEND~~~~~~~~~~~~~~~~~~~~~~------|
                   ...   ...

And were clear. Please rate, and please leave a comment if you think is wrong or a correction.

            
            
Suggest correction
Creating personal tab
Creating personal tab
You can edit any tab online and save it as your Personal.

You can edit, replace or remove any tab part or add personal notes – all changes will be seen only by you.

Personal tabs can be accessed anytime from any device, even offline.
Learn more »
comments
print report bad tab
4 comments total. Showing first comments.
0 reply
Maurorios7 10 May 14, 2013 12:29 AM

WTF!? where's the rest of the song :(

0 reply
DMOB1996 283 May 17, 2013 11:06 PM

its just the outro dude. You can help me though. Im still solving this tab. So yeah.

0 reply
DarkenedShadow 72 Jul 29, 2014 10:52 AM

Verse:

A|------------------------------------------------------------------|
E|--------------------------3-5/6\5-3-5-----------------------------|
A|--3///6--0000--6\\\3--00--3-5/6\5-3-5--3///6--0000--6\\\3--00-----| x4
**** ** **** **

A|---------------------------5-7/8\7-5-7--|
E|---------------------------3-5/6\5-3-5--|
A|---3///6--0000--6\\\3--00---------------| before pre-chorus

guest
You may want to rate the tab now too:
select rating
Wanna post a correction for this tab? Suggest correction