Oops, an error
Loading. Please wait.

Cosmic Slop bass

876 views 1 this week
no commentswrite comment
1 2 3 4 5
3 more votes to show rating
add to favorites
×
Save as Personal and add changes to this tab that will be seen only by you. Learn more ›
×
You can save this tab as Personal to edit and correct it or add notes. All changes will be seen only by you. Learn more »
launch autoscroll
font size
0
reset
guitar tuner
edit
Autoscroll
slow
fast
+/-
esc
set tempo
stop
Author
Cosmic Slop
by: Axiom Funk (website:http://www.sacreddub.com/discography/axiom-funk-funkcronomicon)
Album: Funkcronomicon
Tabbed By : David Dubrow (aka Raccio14)
e-mail: Raccio14@gmail.com

Tuning: Standard

A groovy song to play; once you get down the main riff, it's pretty easy as
almost the entire song is just variations on the main riff, except for the 
little 'break it down' bit (I guess it's the bridge, but 'break it down' 
seemed more fitting for the song).  


Intro and first verse:
G|------------------------------------------------| --|
D|------------------------------------------------|   |
A|---------------------4----------------4--2------|   |
E|-5--2-----2--5-2-5-2---2--5-2---2--5----------2-|   |
                                                      |  x7
G|------------------------------------------------|   |
D|--------------------------------------4--2------|   |
A|---------------------4----------22-5------------|   |
E|-5--2-----2--5-2-5-2---2--5-2-----------------2-| --|

Chorus:
G|------------------------------------------------| --|
D|------------------------------------------------|   |
A|---------------------4----------------4--2------|   |
E|-5--2-----2--5-2-5-2---2--5-2---22-5----------2-|   |
                                                      |  x4
G|------------------------------------------------|   |
D|--------------------------------------4--2------|   |
A|---------------------4----------22-5------------|   |
E|-5--2-----22-5-2-5-2---2--5-2-----------------2-| --|

Little guitar riff before second verse:
G|------------------------------------------------| 
D|------------------------------------------------|   
A|---------------------4----------------4--2------|   
E|-5--2-----2--5-2-5-2---2--5-2---2--5----------2-|   

Second verse:
G|------------------------------------------------|   
D|--------------------------------------4--2------|  
A|---------------------4----------22-5------------| 
E|-5--2-----2--5-2-5-2---2--5-2-----------------2-| 	

G|------------------------------------------------| --|
D|------------------------------------------------|   |
A|---------------------4----------------4--2------|   |
E|-5--2-----2--5-2-5-2---2--5-2---2--5----------2-|   |
                                                      |  x4
G|------------------------------------------------|   |
D|--------------------------------------4--2------|   |
A|---------------------4----------22-5------------|   |
E|-5--2-----2--5-2-5-2---2--5-2-----------------2-| --|

G|------------------------------------------------| 
D|------------------------------------------------|   
A|---------------------4----------------4--2------|   
E|-5--2-----2--5-2-5-2---2--5-2---22-5----------2-|   

Second chorus:
G|------------------------------------------------|   
D|--------------------------------------4--2------|  
A|---------------------4----------22-5------------| 
E|-5--2-----2--5-2-5-2---2--5-2-----------------2-| 	

G|------------------------------------------------| --|
D|------------------------------------------------|   |
A|---------------------4----------------4--2------|   |
E|-5--2-----2--5-2-5-2---2--5-2---2--5----------2-|   |
                                                      |  x3
G|------------------------------------------------|   |
D|--------------------------------------4--2------|   |
A|---------------------4----------22-5------------|   |
E|-5--2-----22-5-2-5-2---2--5-2-----------------2-| --|

G|------------------------------------------------| 
D|------------------------------------------------|   
A|---------------------4----------------4--2------|   
E|-5--2-----2--5-2-5-2---2--5-2---2--5----------2-|   

Break it down!:
G|----------2-------------------------2------------|
D|-4--22-4-------------------4--22-4---------------|
A|-------------------4--2----------------------4---|  x3
E|-------------2--5----------------------2--5------|

G|----------2-------------------------2------------|
D|-4--22-4-------------------4--22-4---------------|
A|-------------------4--2----------------------4/7-| 
E|-------------2--5----------------------2--5------|

Guitar solo:
G|------------------------------------------------| --|
D|------------------------------------------------|   |
A|---------------------4----------------4--2------|   |
E|-5--2-----2--5-2-5-2---2--5-2---2--5----------2-|   |
                                                      |  x2
G|------------------------------------------------|   |
D|--------------------------------------4--2------|   |
A|---------------------4----------22-5------------|   |
E|-5--2-----2--5-2-5-2---2--5-2-----------------2-| --|

Third chorus:
G|------------------------------------------------| --|
D|------------------------------------------------|   |
A|---------------------4----------------4--2------|   |
E|-5--2-----22-5-2-5-2---2--5-2---2--5----------2-|   |
                                                      |  x2
G|------------------------------------------------|   |
D|--------------------------------------4--2------|   |
A|---------------------4----------22-5------------|   |
E|-5--2-----22-5-2-5-2---2--5-2-----------------2-| --|

Outro:
G|------------------------------------------------| --|
D|------------------------------------------------|   |
A|---------------------4----------------4--2------|   |
E|-5--2-----2--5-2-5-2---2--5-2---2--5----------2-|   |
                                                      |  Repeat until fade
G|------------------------------------------------|   |
D|--------------------------------------4--2------|   |
A|---------------------4----------22-5------------|   |
E|-5--2-----2--5-2-5-2---2--5-2-----------------2-| --|


| /  slide up
| \  slide down
===============================================================================

            
            
Suggest correction
Creating personal tab
Creating personal tab
You can edit any tab online and save it as your Personal.

You can edit, replace or remove any tab part or add personal notes – all changes will be seen only by you.

Personal tabs can be accessed anytime from any device, even offline.
Learn more »
Give kudos to tab author, rate the tab!
1 2 3 4 5
comments
print report bad tab
guest
You may want to rate the tab now too:
select rating
Wanna post a correction for this tab? Suggest correction