Oops, an error
Loading. Please wait.

God Knows Tab

version 1
version 1

Whole song

Interactive

62,738 views 93 this week
no commentswrite comment
1 2 3 4 5
excellent!
x 4
add to favorites
launch autoscroll
font size
0
reset
how to read this tab
guitar tuner
Autoscroll
slow
fast
+/-
esc
set tempo
stop
Help us to improve Ultimate-Guitar.com Take our survey!
×
Difficulty
intermediate
GOD KNOWS...
As recorded by ENOZ

Transcribed by VIP ENOZƒRƒs[ƒXƒŒ
        

Words by ”¨@ˆŸ‹M Music by _‘O@‹Å
Arranged by _‘O@‹Å

Gtr I (E A D G B E) - 'Untitled'
Gtr II (E A D G B E) - 'Untitled'

     Q=154
 4/4
  Gtr I
      Q        E    S S S  S E    E    S S

e|--|---------------------------------------|
B|--|--5--------5----5-5-5--5-5----5----5-5-|
G|--|--6--------6----6-6-6--6-6----6----6-6-|
D|--|--6--------6----6-6-6--6-6----6----6-6-|
A|--|--7--------7----7-7-7--7-7----7----7-7-|
E|--|--5--------5----5-5-5--5-5----5----5-5-|
 |
 |    Gtr II
 |     S S S  S S S  S S S  S S S  S S  S S
e|--|-16-0-0-14-0-0-12-0-0-14-0-0-12-0-14-0-|
B|--|---------------------------------------|
G|--|---------------------------------------|
D|--|---------------------------------------|
A|--|---------------------------------------|
E|--|---------------------------------------|


    Q        E    S S S  S E    E    S S    Q        E    S S S  S E    E    S S
e|---------------------------------------|--4--------4----4-4-4--4-4----4----4-4--|
B|--7--------7----7-7-7--7-7----7----7-7-|--4--------4----4-4-4--4-4----4----4-4--|
G|--8--------8----8-8-8--8-8----8----8-8-|--4--------4----4-4-4--4-4----4----4-4--|
D|--9--------9----9-9-9--9-9----9----9-9-|--6--------6----6-6-6--6-6----6----6-6--|
A|--9--------9----9-9-9--9-9----9----9-9-|--6--------6----6-6-6--6-6----6----6-6--|
E|--7--------7----7-7-7--7-7----7----7-7-|--4--------4----4-4-4--4-4----4----4-4--|
 |
 |  S S S  S S S  S S S  S S S  S S  S S    S S S  S S S  S S S  S S S  S S  S S
e|-16-0-0-14-0-0-12-0-0-14-0-0-12-0-14-0-|-16-0-0-14-0-0-12-0-0-14-0-0-12-0-11-0--|
B|---------------------------------------|----------------------------------------|
G|---------------------------------------|----------------------------------------|
D|---------------------------------------|----------------------------------------|
A|---------------------------------------|----------------------------------------|
E|---------------------------------------|----------------------------------------|


    Q     E  S S   S  S  E  E  S S    Q        E    S S S  S E    E    S S
e|--4-----4--4-4---4--4--4--4--4-4-|---------------------------------------|
B|--5-----5--5-5---5--5--5--5--5-5-|--5--------5----5-5-5--5-5----5----5-5-|
G|--6-----6--6-6---6--6--6--6--6-6-|--6--------6----6-6-6--6-6----6----6-6-|
D|--6-----6--6-6---6--6--6--6--6-6-|--6--------6----6-6-6--6-6----6----6-6-|
A|--4-----4--4-4---4--4--4--4--4-4-|--7--------7----7-7-7--7-7----7----7-7-|
E|---------------------------------|--5--------5----5-5-5--5-5----5----5-5-|
 |
 |  E  E  E  E    +E     E  E  E      S S S  S S S  S S S  S S S  S S  S S
e|-11-12-11----------------11-12---|-16-0-0-14-0-0-12-0-0-14-0-0-12-0-14-0-|
B|----------12---(12)---14---------|---------------------------------------|
G|---------------------------------|---------------------------------------|
D|---------------------------------|---------------------------------------|
A|---------------------------------|---------------------------------------|
E|---------------------------------|---------------------------------------|


    Q        E    S S S  S E    E    S S
e|-----------------------------------------|
B|--7--------7----7-7-7--7-7----7----7-7---|
G|--8--------8----8-8-8--8-8----8----8-8---|
D|--9--------9----9-9-9--9-9----9----9-9---|
A|--9--------9----9-9-9--9-9----9----9-9---|
E|--7--------7----7-7-7--7-7----7----7-7---|
 |
 |  S S S  S S S  S S S  S S S  S S  S S
e|-16-0-0-14-0-0-12-0-0-14-0-0-12-0-14-0---|
B|-----------------------------------------|
G|-----------------------------------------|
D|-----------------------------------------|
A|-----------------------------------------|
E|-----------------------------------------|


    Q                 Q                 E        E        E        S    S
e|--4-----------------4-----------------4--------4--------4--------4----4----|
B|--7-----------------7-----------------7--------7--------7--------7----7----|
G|--6-----------------6-----------------6--------6--------6--------6----6----|
D|--6-----------------6-----------------6--------6--------6--------6----6----|
A|--4-----------------4-----------------4--------4--------4--------4----4----|
E|---------------------------------------------------------------------------|
|
|  |--3--|  |--3--|  |--3--|  |--3--|  |--3--|  |--3--|  |--3--|  |---3---|
|  S  S  S  S  S  S  S  S  S  S  S  S  S  S  S  S  S  S  S  S  S  S  S    S

e|-16-14-12-16-14-12-16-14-12-16-14-12-16-14-12-16-14-12-16-14-12-16-14---12-|
B|---------------------------------------------------------------------------|
G|---------------------------------------------------------------------------|
D|---------------------------------------------------------------------------|
A|---------------------------------------------------------------------------|
E|---------------------------------------------------------------------------|


    Q                 E        S    S     S    S     E        E        S    S
e|--4-----------------4--------x----4-----x----4-----4--------4--------4----4-----|
B|--5-----------------5--------x----5-----x----5-----5--------5--------5----5-----|
G|--6-----------------6--------x----6-----x----6-----6--------6--------6----6-----|
D|--6-----------------6--------x----6-----x----6-----6--------6--------6----6-----|
A|--4-----------------4--------x----4-----x----4-----4--------4--------4----4-----|
E|--------------------------------------------------------------------------------|
|
|  |--3--|  |--3--|  |--3--|  |---3---|  |---3---|  |--3--|  |--3--|  |---3---|
|  S  S  S  S  S  S  S  S  S  S  S    S  S  S    S  S  S  S  S  S  S  S  S    S
e|-16-14-12----------16-14-12------------16-14---12-------------------------------|
B|----------16-14-12----------16-14---14------------16-14-12-16-14-12-------------|
G|--------------------------------------------------------------------16-14---13--|
D|--------------------------------------------------------------------------------|
A|--------------------------------------------------------------------------------|
E|--------------------------------------------------------------------------------|


    Q        E    S S S  S E    E    S S
e|---------------------------------------|
B|--5--------5----5-5-5--5-5----5----5-5-|
G|--6--------6----6-6-6--6-6----6----6-6-|
D|--6--------6----6-6-6--6-6----6----6-6-|
A|--7--------7----7-7-7--7-7----7----7-7-|
E|--5--------5----5-5-5--5-5----5----5-5-|
 |
 |  S S S  S S S  S S S  S S S  S S  S S
e|-16-0-0-14-0-0-12-0-0-14-0-0-12-0-14-0-|
B|---------------------------------------|
G|---------------------------------------|
D|---------------------------------------|
A|---------------------------------------|
E|---------------------------------------|


    Q        E    S S S  S E    E    S S    Q        E    Q        E    E    S S
e|---------------------------------------|--4--------4----4--------4----4----4-4-|
B|--7--------7----7-7-7--7-7----7----7-7-|--4--------4----4--------4----4----4-4-|
G|--8--------8----8-8-8--8-8----8----8-8-|--4--------4----4--------4----4----4-4-|
D|--9--------9----9-9-9--9-9----9----9-9-|--6--------6----6--------6----6----6-6-|
A|--9--------9----9-9-9--9-9----9----9-9-|--6--------6----6--------6----6----6-6-|
E|--7--------7----7-7-7--7-7----7----7-7-|--4--------4----4--------4----4----4-4-|
 |
 |  S S S  S S S  S S S  S S S  S S  S S    S S S  S S S  S S S  S S S  S S  S S
e|-16-0-0-14-0-0-12-0-0-14-0-0-12-0-14-0-|-19-0-0-19-0-0-19-0-0-16-0-0-14-0-16-0-|
B|---------------------------------------|---------------------------------------|
G|---------------------------------------|---------------------------------------|
D|---------------------------------------|---------------------------------------|
A|---------------------------------------|---------------------------------------|
E|---------------------------------------|---------------------------------------|


    Q        E    S S S  S E    E    S S
e|--4--------4----4-4-4--4-4----4----4-4-|
B|--5--------5----5-5-5--5-5----5----5-5-|
G|--6--------6----6-6-6--6-6----6----6-6-|
D|--6--------6----6-6-6--6-6----6----6-6-|
A|--4--------4----4-4-4--4-4----4----4-4-|
E|---------------------------------------|
 |
 |  S S S  S S S  S S S  S S S  S S  S S
e|-14-0-0-12-0-0-14-0-0-11-0-0-12-0-14-0-|
B|---------------------------------------|
G|---------------------------------------|
D|---------------------------------------|
A|---------------------------------------|
E|---------------------------------------|


    Q        E    S S S  S E    E    S S    Q        E    Q        E    E    S S
e|---------------------------------------|---------------------------------------|
B|--5--------5----5-5-5--5-5----5----5-5-|--7--------7----7--------7----7----7-7-|
G|--6--------6----6-6-6--6-6----6----6-6-|--8--------8----8--------8----8----8-8-|
D|--6--------6----6-6-6--6-6----6----6-6-|--9--------9----9--------9----9----9-9-|
A|--7--------7----7-7-7--7-7----7----7-7-|--9--------9----9--------9----9----9-9-|
E|--5--------5----5-5-5--5-5----5----5-5-|--7--------7----7--------7----7----7-7-|
 |
 |  S S S  S S S  S S S  S S S  S S  S S    S S S  S S S  S S S  S S S  S S  S S
e|-16-0-0-14-0-0-12-0-0-14-0-0-12-0-14-0-|-16-0-0-14-0-0-12-0-0-14-0-0-12-0-14-0-|
B|---------------------------------------|---------------------------------------|
G|---------------------------------------|---------------------------------------|
D|---------------------------------------|---------------------------------------|
A|---------------------------------------|---------------------------------------|
E|---------------------------------------|---------------------------------------|


    Q                 E        Q                 E        E        S     S
e|----------------------------------------------------------------------------|
B|--9-----------------9--------9-----------------9--------9--------9-----9----|
G|-11----------------11-------11----------------11-------11-------11----11----|
D|-11----------------11-------11----------------11-------11-------11----11----|
A|----------------------------------------------------------------------------|
E|----------------------------------------------------------------------------|
|
|  |--3--|  |--3--|  |--3--|  |--3--|  |--3--|  |--3--|  |--3--|  |---3----|
|  S  S  S  S  S  S  S  S  S  S  S  S  S  S  S  S  S  S  S  S  S  S  S     S
e|-16-14-12-16-14-12-16-14-12-16-14-12-16-14-12-16-14-12-16-14-12-16-14----12-|
B|----------------------------------------------------------------------------|
G|----------------------------------------------------------------------------|
D|----------------------------------------------------------------------------|
A|----------------------------------------------------------------------------|
E|----------------------------------------------------------------------------|


    Q      H.
e|-----------------------|
B|--9------9-------------|
G|--9------9-------------|
D|-11-----11-------------|
A|-----------------------|
E|-----------------------|
 |
 |  Q      E   Q   Q.
e|-13b14r=13-------------|
B|------------14--14-----|
G|-----------------------|
D|-----------------------|
A|-----------------------|
E|-----------------------|


   W          +W           H    +Q.   E   +E  Q  Q  Q.
e|-4--------|-(4)--------|--------------|----------------|
B|-5--------|-(5)--------|-4----(4)---4-|-(4)-------4----|
G|-6--------|-(6)--------|-4----(4)-----|-----4-----4----|
D|-6--------|-(6)--------|-4----(4)-----|--------4--4----|
A|-4--------|-(4)--------|-2----(2)-----|----------------|
E|----------|------------|--------------|----------------|
 |
 | W           W           W               W
e|----------|------------|--------------|----------------|
B|----------|------------|--------------|----------------|
G|----------|------------|--------------|----------------|
D|----------|------------|--------------|----------------|
A|----------|------------|--------------|----------------|
E|----------|------------|--------------|----------------|


   W          W          W                Q   E E Q  E E
e|----------|----------|-0--------------|-----6-6----4-4-|
B|-2--------|-4--------|-0--------------|-----7-7----4-4-|
G|-2--------|-4--------|-1--------------|-----8-8----4-4-|
D|-2--------|-4--------|-2--------------|-8-----8-6--6-6-|
A|-0--------|-2--------|-2--------------|-6-----6-6------|
E|----------|----------|-0--------------|---------4------|
 |
 | W          W          H    Q  E E      Q   E E H
e|----------|----------|----------------|---------8------|
B|----------|----------|-----------9b11r|=9--10-9-9------|
G|----------|----------|---------8------|-----8-8-8------|
D|----------|----------|----------------|----------------|
A|----------|----------|----------------|----------------|
E|----------|----------|----------------|----------------|


   PM|   PM|         PM|   PM|     PM-
   E E E E E E E E   E E E E E E E E
e|-----------------|-----------------|
B|-----5-----5-5-5-|-----5-----5-5---|
G|-----6-----6-6-6-|-----6-----6-6---|
D|-----6-----6-6-6-|-----6-----6-6---|
A|-4-4---4-4-------|-4-4---4-4-----4-|
E|-----------------|-----------------|
 |
 | PM---------------------------------
 | E E E E E E E E   E E E E E E E E
e|-----------------|-----------------|
B|-5-5-5-5-5-5-5-5-|-5-5-5-5-5-5-5-5-|
G|-----------------|-----------------|
D|-----------------|-----------------|
A|-----------------|-----------------|
E|-----------------|-----------------|


 ---|   PM|   PM        PM--------------|
  E E E E E E E   E     E   E   E   E   E   E   E   E
e|---------------------|-----------------------------------|
B|-----4-----4-----4---|---------------------4---4---4-----|
G|-----4-----4-----4---|---------------------4---4---4-----|
D|-----4-----4-----4---|---------------------4---4---4-----|
A|-2-2---2-2---2-------|-2---2---2---2---2-----------------|
E|---------------------|-----------------------------------|
|
|-------------------------------------|
| E E E E E E S S S S   S S S S S S S S S S S S S S S S
e|---------------------|-----------------------------------|
B|-4-4-4-4-4-4-4h5p4h5p|=4h5p4h5p4h5p4h5p4h5p4h5p4h5p4h5---|
G|---------------------|-----------------------------------|
D|---------------------|-----------------------------------|
A|---------------------|-----------------------------------|
E|---------------------|-----------------------------------|


  PM|   PM|         PM|   PM|     PM--------|           PM----|
  E E E E E E E E   E E E E E E E E   E     E     E     E     E     E     E     E
e|-----------------|-----------------|-------------------------------------------------|
B|-----2-----2-2-2-|-----4-----4-4---|-------------------------------------------------|
G|-----2-----2-2-2-|-----4-----4-4---|-------------1-----------------1-----------1-----|
D|-----2-----2-2-2-|-----4-----4-4---|-------------2-----------------2-----------2-----|
A|-0-0---0-0-------|-2-2---2-2-----2-|-------------2-----------------2-----------2-----|
E|-----------------|-----------------|-0-----0-----------0-----0-----------------------|
|
| PM--------------------------------------------|
|                                     |-3-| |-3-| |-3-| |-3-| |-3-| |-3-| |-3-| |-3-|
| E E E E E E E E   E E E E E E E E   S S S S S S S S S S S S S S S S S S S S S S S S
e|-----------------|-----------------|-7-5-4-7-5-4-7-5-4-7-5-4-7-5-4-7-5-4-7-5-4-7-5-4-|
B|-5-5-5-5-5-5-5-5-|-4-4-4-4-4-4-4-4-|-------------------------------------------------|
G|-----------------|-----------------|-------------------------------------------------|
D|-----------------|-----------------|-------------------------------------------------|
A|-----------------|-----------------|-------------------------------------------------|
E|-----------------|-----------------|-------------------------------------------------|


   +Q            E     E     H
e|---------------------5-----4-------------------|
B|-----------------------------------------------|
G|-(1)-----------x-------------------------------|
D|-(2)-----------x-------------------------------|
A|-(2)-----------x-------------------------------|
E|-----------------------------------------------|
|
|  |-3--| |-3-| |-3-| |-3-| |-3-| |-3-| |-3-|
|  S  S S S S S S S S S S S S S S S S S S S S E
e|--7--5-4-7-5-4-7-5-4-7-5-4-7-5-4-7-5-4-7-5-4-4-|
B|-----------------------------------------------|
G|-----------------------------------------------|
D|-----------------------------------------------|
A|-----------------------------------------------|
E|-----------------------------------------------|


   Q  E E  E  E E  E    E E  E  S S  E  E +Q
e|--------------------|------------------------|
B|--------------------|------------------------|
G|-6--6-x--x--6-x--6--|-x-x--6--x-x--x--6-(6)--|
D|-6--6-x--x--6-x--6--|-x-x--6--x-x--x--6-(6)--|
A|-4--4-x--x--4-x--4--|-x-x--4--x-x--x--4-(4)--|
E|--------------------|------------------------|
 |
 | Q  Q   +E  Q   +E    Q   +E  E   +H
e|----4---(4)---------|------------------------|
B|------------5---(5)-|------------------------|
G|--------------------|-4---(4)----------------|
D|--------------------|---------6---(6)--------|
A|--------------------|------------------------|
E|--------------------|------------------------|


   E E  E  E E  E  E E    E  E    +Q   E E E  E
e|---------------------|--------------------------|
B|---------------------|--------------------------|
G|-x-x--4--x-x--4--x-4-|--x--4----(4)----x-x--x---|
D|-x-x--4--x-x--4--x-4-|--x--4----(4)----x-x--x---|
A|-x-x--2--x-x--2--x-2-|--x--2----(2)----x-x--x---|
E|---------------------|--------------------------|
 |
 | Q   +E  Q   +E  Q     +E  Q.        E Q   +E
e|---------------------|--------------------------|
B|---------4---(4)-----|--------------------------|
G|-----------------4---|-(4)-6b8=======6r4---(4)--|
D|-6---(6)-------------|--------------------------|
A|---------------------|--------------------------|
E|---------------------|--------------------------|


   Q  E E  E  Q   E    Q  E E  E  Q   E
e|-------------------|-------------------|
B|-------------------|-------------------|
G|-2--2-x--x--2---2--|-4--4-x--x--4---4--|
D|-2--2-x--x--2---2--|-4--4-x--x--4---4--|
A|-0--0-x--x--0---0--|-2--2-x--x--2---2--|
E|-------------------|-------------------|
 |
 | Q  Q   +E  Q  +E    Q  Q   +E  Q  +E
e|-------------------|-------------------|
B|----7---(7)--------|----5---(5)--------|
G|------------6--(6)-|------------6--(6)-|
D|-7-----------------|-7-----------------|
A|-------------------|-------------------|
E|-------------------|-------------------|


  PM--------------|
  E E E E E   E   E   E     +E  Q.   H
e|-------------------------|---------------|
B|-------------------------|---------------|
G|-------------------------|---------------|
D|-------------------------|---------------|
A|-6-6-6-6-6---6---6---6---|-(6)-----------|
E|-4-4-4-4-4---4---4---4---|-(4)-----------|
 |
 | PM--|   T   T   T   T
 | E E E E S S S S S S S S    E  Q.   H
e|-------------------------|--4------------|
B|---------9p4-9p4---------|--4------------|
G|-------6---------8p6-----|--5------------|
D|-------6-----------------|--6------------|
A|-6-6-6-6-------------9p6-|---------------|
E|-4-4-4-------------------|---------------|


   Q   E  S S S S E E  S  S
e|--------------------------|
B|-5---5--5-5-5-5-5-5--5--5-|
G|-6---6--6-6-6-6-6-6--6--6-|
D|-6---6--6-6-6-6-6-6--6--6-|
A|-7---7--7-7-7-7-7-7--7--7-|
E|-5---5--5-5-5-5-5-5--5--5-|
 |
 | Q  +E  H           +E
e|-9--(9)-9-----------(9)---|
B|-9--(9)-9-----------(9)---|
G|-9--(9)-9-----------(9)---|
D|-7--(7)-7-----------(7)---|
A|--------------------------|
E|--------------------------|


   Q   E  S S S S E E  S  S   Q   E  S S S S E E  S  S
e|--------------------------|-4---4--4-4-4-4-4-4--4--4-|
B|-7---7--7-7-7-7-7-7--7--7-|-4---4--4-4-4-4-4-4--4--4-|
G|-8---8--8-8-8-8-8-8--8--8-|-4---4--4-4-4-4-4-4--4--4-|
D|-9---9--9-9-9-9-9-9--9--9-|-6---6--6-6-6-6-6-6--6--6-|
A|-9---9--9-9-9-9-9-9--9--9-|-6---6--6-6-6-6-6-6--6--6-|
E|-7---7--7-7-7-7-7-7--7--7-|-4---4--4-4-4-4-4-4--4--4-|
 |
 | Q  +E  H           +E      Q  +E  H           +E
e|-7--(7)-7-----------(7)---|-7--(7)-7-----------(7)---|
B|-7--(7)-7-----------(7)---|-9--(9)-9-----------(9)---|
G|-8--(8)-8-----------(8)---|-8--(8)-8-----------(8)---|
D|-9--(9)-9-----------(9)---|-9--(9)-9-----------(9)---|
A|--------------------------|--------------------------|
E|--------------------------|--------------------------|


    Q    E   S S S S E E   S  S
e|--4----4---4-4-4-4-4-4---4--4-|
B|--5----5---5-5-5-5-5-5---5--5-|
G|--6----6---6-6-6-6-6-6---6--6-|
D|--6----6---6-6-6-6-6-6---6--6-|
A|--4----4---4-4-4-4-4-4---4--4-|
E|------------------------------|
 |
 |  Q   +E   H            +E
e|--9---(9)--9------------(9)---|
B|--9---(9)--9------------(9)---|
G|--9---(9)--9------------(9)---|
D|-11--(11)-11-----------(11)---|
A|------------------------------|
E|------------------------------|


    Q  E  S S S S  E  E S S   Q  E S S S S E E S S
e|--2--2--2-2-2-2--2--2-2-2-|-4--4-4-4-4-4-4-4-4-4-|
B|--2--2--2-2-2-2--2--2-2-2-|-4--4-4-4-4-4-4-4-4-4-|
G|--2--2--2-2-2-2--2--2-2-2-|-4--4-4-4-4-4-4-4-4-4-|
D|--4--4--4-4-4-4--4--4-4-4-|-6--6-6-6-6-6-6-6-6-6-|
A|--4--4--4-4-4-4--4--4-4-4-|-6--6-6-6-6-6-6-6-6-6-|
E|--2--2--2-2-2-2--2--2-2-2-|-4--4-4-4-4-4-4-4-4-4-|
 |
 |  Q  E  Q        E  Q       Q  E E   E   E Q
e|--9--x--9--------9--9-----|-7--x-----------7-----|
B|-10--x-10-------10-10-----|-9--x-9---------9-----|
G|-11--x-11-------11-11-----|-8--x-----8-----8-----|
D|-11--x-11-------11-11-----|-9--x---------9-9-----|
A|--------------------------|----------------------|
E|--------------------------|----------------------|


   Q  E S S S S E E S S   E Q   Q  E Q    Q   E  S S S S E E  S  S
e|-4--4-4-4-4-4-4-4-4-4-|-7-7---4--4-4--|--------------------------|
B|-5--5-5-5-5-5-5-5-5-5-|-7-7---4--4-4--|-5---5--5-5-5-5-5-5--5--5-|
G|-6--6-6-6-6-6-6-6-6-6-|-8-8---5--5-5--|-6---6--6-6-6-6-6-6--6--6-|
D|-6--6-6-6-6-6-6-6-6-6-|-9-9---4--4-4--|-6---6--6-6-6-6-6-6--6--6-|
A|-4--4-4-4-4-4-4-4-4-4-|-9-9---6--6-6--|-7---7--7-7-7-7-7-7--7--7-|
E|----------------------|-7-7---4--4-4--|-5---5--5-5-5-5-5-5--5--5-|
 |
 | Q  E E   E   E E E     E E E Q  E Q    Q  +E  H           +E
e|-4--4-4---4---4-4-4---|-7-7---4--4-4--|-9--(9)-9-----------(9)---|
B|-5--5-5---5---5-5-5---|-7-7---4--4-4--|-9--(9)-9-----------(9)---|
G|-6--6-6---6---6-6-6---|-7-7---5--5-5--|-9--(9)-9-----------(9)---|
D|----------------------|---------------|-7--(7)-7-----------(7)---|
A|----------------------|---------------|--------------------------|
E|----------------------|---------------|--------------------------|


   Q   E  S S S S E E  S  S   Q   E  S S S S E E  S  S
e|--------------------------|-4---4--4-4-4-4-4-4--4--4-|
B|-7---7--7-7-7-7-7-7--7--7-|-4---4--4-4-4-4-4-4--4--4-|
G|-8---8--8-8-8-8-8-8--8--8-|-4---4--4-4-4-4-4-4--4--4-|
D|-9---9--9-9-9-9-9-9--9--9-|-6---6--6-6-6-6-6-6--6--6-|
A|-9---9--9-9-9-9-9-9--9--9-|-6---6--6-6-6-6-6-6--6--6-|
E|-7---7--7-7-7-7-7-7--7--7-|-4---4--4-4-4-4-4-4--4--4-|
 |
 | Q  +E  H           +E      Q  +E  H           +E
e|-7--(7)-7-----------(7)---|-7--(7)-7-----------(7)---|
B|-7--(7)-7-----------(7)---|-9--(9)-9-----------(9)---|
G|-8--(8)-8-----------(8)---|-8--(8)-8-----------(8)---|
D|-9--(9)-9-----------(9)---|-9--(9)-9-----------(9)---|
A|--------------------------|--------------------------|
E|--------------------------|--------------------------|


    Q    E   S S S S E E   S  S
e|--4----4---4-4-4-4-4-4---4--4-|
B|--5----5---5-5-5-5-5-5---5--5-|
G|--6----6---6-6-6-6-6-6---6--6-|
D|--6----6---6-6-6-6-6-6---6--6-|
A|--4----4---4-4-4-4-4-4---4--4-|
E|------------------------------|
 |
 |  Q   +E   H            +E
e|--9---(9)--9------------(9)---|
B|--9---(9)--9------------(9)---|
G|--9---(9)--9------------(9)---|
D|-11--(11)-11-----------(11)---|
A|------------------------------|
E|------------------------------|


    Q    E   S S S S E E   S  S
e|--2----2---2-2-2-2-2-2---2--2-|
B|--2----2---2-2-2-2-2-2---2--2-|
G|--2----2---2-2-2-2-2-2---2--2-|
D|--4----4---4-4-4-4-4-4---4--4-|
A|--4----4---4-4-4-4-4-4---4--4-|
E|--2----2---2-2-2-2-2-2---2--2-|
 |
 |  Q   +E   H            +E
e|--9---(9)--9------------(9)---|
B|-10--(10)-10-----------(10)---|
G|-11--(11)-11-----------(11)---|
D|-11--(11)-11-----------(11)---|
A|------------------------------|
E|------------------------------|


   Q   E  S S S S E E  S  S    Q      E S S S S  E  E S S
e|-4---4--4-4-4-4-4-4--4--4-|------------------------------|
B|-4---4--4-4-4-4-4-4--4--4-|--5------5-5-5-5-5--5--5-5-5--|
G|-4---4--4-4-4-4-4-4--4--4-|--6------6-6-6-6-6--6--6-6-6--|
D|-6---6--6-6-6-6-6-6--6--6-|--6------6-6-6-6-6--6--6-6-6--|
A|-6---6--6-6-6-6-6-6--6--6-|--7------7-7-7-7-7--7--7-7-7--|
E|-4---4--4-4-4-4-4-4--4--4-|--5------5-5-5-5-5--5--5-5-5--|
 |
 | Q  +E  H           +E       E S S  E S S S S  E  E S S
e|-7--(7)-7-----------(7)---|--9-x-x--9-x-x-x-x--9--9-x-x--|
B|-9--(9)-9-----------(9)---|-10-x-x-10-x-x-x-x-10-10-x-x--|
G|-8--(8)-8-----------(8)---|--9-x-x--9-x-x-x-x--9--9-x-x--|
D|-9--(9)-9-----------(9)---|------------------------------|
A|--------------------------|------------------------------|
E|--------------------------|------------------------------|


    Q      E S S S S  E  E S S    Q   E Q     E  E  S S     Q   +E  E +H
e|-----------------------------|--4---4-4-----4--4--4-4-|---4---(4)-4-(4)----|
B|--7------7-7-7-7-7--7--7-7-7-|--7---7-7-----7--7--7-7-|---6---(6)-6-(6)----|
G|--8------8-8-8-8-8--8--8-8-8-|--6---6-6-----6--6--6-6-|---6---(6)-6-(6)----|
D|--9------9-9-9-9-9--9--9-9-9-|--6---6-6-----6--6--6-6-|---6---(6)-6-(6)----|
A|--9------9-9-9-9-9--9--9-9-9-|--4---4-4-----4--4--4-4-|---4---(4)-4-(4)----|
E|--7------7-7-7-7-7--7--7-7-7-|------------------------|--------------------|
 |
 |  E S S  E S S S S  E  E S S    Q   Q    E  E  E  E      +W
e|-11-x-x-11-x-x-x-x-11-11-x-x-|------------------------|--------------------|
B|-12-x-x-12-x-x-x-x-12-12-x-x-|--9---9----9--9--9--9---|--(9)---------------|
G|-11-x-x-11-x-x-x-x-11-11-x-x-|-11--11---11-11-11-10---|-(10)---------------|
D|-----------------------------|-11--11---11-11-11-11---|-(11)---------------|
A|-----------------------------|------------------------|--------------------|
E|-----------------------------|------------------------|--------------------|


    Q        E    S S S  S E    E    S S
e|---------------------------------------|
B|--5--------5----5-5-5--5-5----5----5-5-|
G|--6--------6----6-6-6--6-6----6----6-6-|
D|--6--------6----6-6-6--6-6----6----6-6-|
A|--7--------7----7-7-7--7-7----7----7-7-|
E|--5--------5----5-5-5--5-5----5----5-5-|
 |
 |  S S S  S S S  S S S  S S S  S S  S S
e|-16-0-0-14-0-0-12-0-0-14-0-0-12-0-14-0-|
B|---------------------------------------|
G|---------------------------------------|
D|---------------------------------------|
A|---------------------------------------|
E|---------------------------------------|


    Q        E    S S S  S E    E    S S    Q        E    S S S  S E    E    S S
e|---------------------------------------|--4--------4----4-4-4--4-4----4----4-4-|
B|--7--------7----7-7-7--7-7----7----7-7-|--4--------4----4-4-4--4-4----4----4-4-|
G|--8--------8----8-8-8--8-8----8----8-8-|--4--------4----4-4-4--4-4----4----4-4-|
D|--9--------9----9-9-9--9-9----9----9-9-|--6--------6----6-6-6--6-6----6----6-6-|
A|--9--------9----9-9-9--9-9----9----9-9-|--6--------6----6-6-6--6-6----6----6-6-|
E|--7--------7----7-7-7--7-7----7----7-7-|--4--------4----4-4-4--4-4----4----4-4-|
 |
 |  S S S  S S S  S S S  S S S  S S  S S    S S S  S S S  S S S  S S S  S S  S S
e|-16-0-0-14-0-0-12-0-0-14-0-0-12-0-14-0-|-16-0-0-14-0-0-12-0-0-14-0-0-12-0-11-0-|
B|---------------------------------------|---------------------------------------|
G|---------------------------------------|---------------------------------------|
D|---------------------------------------|---------------------------------------|
A|---------------------------------------|---------------------------------------|
E|---------------------------------------|---------------------------------------|


    Q     E  S S   S  S  E  E  S S    Q        E    S S S  S E    E    S S
e|--4-----4--4-4---4--4--4--4--4-4-|---------------------------------------|
B|--5-----5--5-5---5--5--5--5--5-5-|--5--------5----5-5-5--5-5----5----5-5-|
G|--6-----6--6-6---6--6--6--6--6-6-|--6--------6----6-6-6--6-6----6----6-6-|
D|--6-----6--6-6---6--6--6--6--6-6-|--6--------6----6-6-6--6-6----6----6-6-|
A|--4-----4--4-4---4--4--4--4--4-4-|--7--------7----7-7-7--7-7----7----7-7-|
E|---------------------------------|--5--------5----5-5-5--5-5----5----5-5-|
 |
 |  E  E  E  E    +E     E  E  E      S S S  S S S  S S S  S S S  S S  S S
e|-11-12-11----------------11-12---|-16-0-0-14-0-0-12-0-0-14-0-0-12-0-14-0-|
B|----------12---(12)---14---------|---------------------------------------|
G|---------------------------------|---------------------------------------|
D|---------------------------------|---------------------------------------|
A|---------------------------------|---------------------------------------|
E|---------------------------------|---------------------------------------|


    Q        E    S S S  S E    E    S S
e|-----------------------------------------|
B|--7--------7----7-7-7--7-7----7----7-7---|
G|--8--------8----8-8-8--8-8----8----8-8---|
D|--9--------9----9-9-9--9-9----9----9-9---|
A|--9--------9----9-9-9--9-9----9----9-9---|
E|--7--------7----7-7-7--7-7----7----7-7---|
 |
 |  S S S  S S S  S S S  S S S  S S  S S
e|-16-0-0-14-0-0-12-0-0-14-0-0-12-0-14-0---|
B|-----------------------------------------|
G|-----------------------------------------|
D|-----------------------------------------|
A|-----------------------------------------|
E|-----------------------------------------|


    Q                 Q                 E        E        E        S    S
e|--4-----------------4-----------------4--------4--------4--------4----4----|
B|--7-----------------7-----------------7--------7--------7--------7----7----|
G|--6-----------------6-----------------6--------6--------6--------6----6----|
D|--6-----------------6-----------------6--------6--------6--------6----6----|
A|--4-----------------4-----------------4--------4--------4--------4----4----|
E|---------------------------------------------------------------------------|
|
|  |--3--|  |--3--|  |--3--|  |--3--|  |--3--|  |--3--|  |--3--|  |---3---|
|  S  S  S  S  S  S  S  S  S  S  S  S  S  S  S  S  S  S  S  S  S  S  S    S
e|-16-14-12-16-14-12-16-14-12-16-14-12-16-14-12-16-14-12-16-14-12-16-14---12-|
B|---------------------------------------------------------------------------|
G|---------------------------------------------------------------------------|
D|---------------------------------------------------------------------------|
A|---------------------------------------------------------------------------|
E|---------------------------------------------------------------------------|


    Q                 E        S    S     S    S     E        E        S    S
e|--4-----------------4--------x----4-----x----4-----4--------4--------4----4-----|
B|--5-----------------5--------x----5-----x----5-----5--------5--------5----5-----|
G|--6-----------------6--------x----6-----x----6-----6--------6--------6----6-----|
D|--6-----------------6--------x----6-----x----6-----6--------6--------6----6-----|
A|--4-----------------4--------x----4-----x----4-----4--------4--------4----4-----|
E|--------------------------------------------------------------------------------|
|
|  |--3--|  |--3--|  |--3--|  |---3---|  |---3---|  |--3--|  |--3--|  |---3---|
|  S  S  S  S  S  S  S  S  S  S  S    S  S  S    S  S  S  S  S  S  S  S  S    S
e|-16-14-12----------16-14-12------------16-14---12-------------------------------|
B|----------16-14-12----------16-14---14------------16-14-12-16-14-12-------------|
G|--------------------------------------------------------------------16-14---13--|
D|--------------------------------------------------------------------------------|
A|--------------------------------------------------------------------------------|
E|--------------------------------------------------------------------------------|


    Q        E    S S S  S E    E    S S
e|---------------------------------------|
B|--5--------5----5-5-5--5-5----5----5-5-|
G|--6--------6----6-6-6--6-6----6----6-6-|
D|--6--------6----6-6-6--6-6----6----6-6-|
A|--7--------7----7-7-7--7-7----7----7-7-|
E|--5--------5----5-5-5--5-5----5----5-5-|
 |
 |  S S S  S S S  S S S  S S S  S S  S S
e|-16-0-0-14-0-0-12-0-0-14-0-0-12-0-14-0-|
B|---------------------------------------|
G|---------------------------------------|
D|---------------------------------------|
A|---------------------------------------|
E|---------------------------------------|


    Q        E    S S S  S E    E    S S    Q        E    Q        E    E    S S
e|---------------------------------------|--4--------4----4--------4----4----4-4-|
B|--7--------7----7-7-7--7-7----7----7-7-|--4--------4----4--------4----4----4-4-|
G|--8--------8----8-8-8--8-8----8----8-8-|--4--------4----4--------4----4----4-4-|
D|--9--------9----9-9-9--9-9----9----9-9-|--6--------6----6--------6----6----6-6-|
A|--9--------9----9-9-9--9-9----9----9-9-|--6--------6----6--------6----6----6-6-|
E|--7--------7----7-7-7--7-7----7----7-7-|--4--------4----4--------4----4----4-4-|
 |
 |  S S S  S S S  S S S  S S S  S S  S S    S S S  S S S  S S S  S S S  S S  S S
e|-16-0-0-14-0-0-12-0-0-14-0-0-12-0-14-0-|-19-0-0-19-0-0-19-0-0-16-0-0-14-0-16-0-|
B|---------------------------------------|---------------------------------------|
G|---------------------------------------|---------------------------------------|
D|---------------------------------------|---------------------------------------|
A|---------------------------------------|---------------------------------------|
E|---------------------------------------|---------------------------------------|


    Q     E  S S S S  E  E  S S    Q        E    S S S  S E    E    S S
e|--4-----4--4-4-4-4--4--4--4-4-|---------------------------------------|
B|--5-----5--5-5-5-5--5--5--5-5-|--5--------5----5-5-5--5-5----5----5-5-|
G|--6-----6--6-6-6-6--6--6--6-6-|--6--------6----6-6-6--6-6----6----6-6-|
D|--6-----6--6-6-6-6--6--6--6-6-|--6--------6----6-6-6--6-6----6----6-6-|
A|--4-----4--4-4-4-4--4--4--4-4-|--7--------7----7-7-7--7-7----7----7-7-|
E|------------------------------|--5--------5----5-5-5--5-5----5----5-5-|
 |
 |  E  E  E  Q        E  E  E      S S S  S S S  S S S  S S S  S S  S S
e|-12-14-11-12-------11-12-14---|-16-0-0-14-0-0-12-0-0-14-0-0-12-0-14-0-|
B|------------------------------|---------------------------------------|
G|------------------------------|---------------------------------------|
D|------------------------------|---------------------------------------|
A|------------------------------|---------------------------------------|
E|------------------------------|---------------------------------------|


    Q        E    Q        E    E    S S
e|-----------------------------------------|
B|--7--------7----7--------7----7----7-7---|
G|--8--------8----8--------8----8----8-8---|
D|--9--------9----9--------9----9----9-9---|
A|--9--------9----9--------9----9----9-9---|
E|--7--------7----7--------7----7----7-7---|
 |
 |  S S S  S S S  S S S  S S S  S S  S S
e|-16-0-0-14-0-0-12-0-0-14-0-0-12-0-14-0---|
B|-----------------------------------------|
G|-----------------------------------------|
D|-----------------------------------------|
A|-----------------------------------------|
E|-----------------------------------------|


    Q                 E        Q                 E        E        S     S
e|----------------------------------------------------------------------------|
B|--9-----------------9--------9-----------------9--------9--------9-----9----|
G|-11----------------11-------11----------------11-------11-------11----11----|
D|-11----------------11-------11----------------11-------11-------11----11----|
A|----------------------------------------------------------------------------|
E|----------------------------------------------------------------------------|
|
|  |--3--|  |--3--|  |--3--|  |--3--|  |--3--|  |--3--|  |--3--|  |---3----|
|  S  S  S  S  S  S  S  S  S  S  S  S  S  S  S  S  S  S  S  S  S  S  S     S
e|-16-14-12-16-14-12-16-14-12-16-14-12-16-14-12-16-14-12-16-14-12-16-14----12-|
B|----------------------------------------------------------------------------|
G|----------------------------------------------------------------------------|
D|----------------------------------------------------------------------------|
A|----------------------------------------------------------------------------|
E|----------------------------------------------------------------------------|


    Q                 H.
e|----------------------------------------------------|
B|--9-----------------9-------------------------------|
G|--9-----------------9-------------------------------|
D|-11----------------11-------------------------------|
A|----------------------------------------------------|
E|----------------------------------------------------|
|
|  |--3--|  |--3--|  |--3---|  |--3--|  |--3--|
|  S  S  S  S  S  S  S   S  S  S  S  S  S  S  S Q.
e|-16-21-16-------------------------------------------|
B|----------19-18-16-----19-18-16----16-18-16---------|
G|-------------------18-----------18----------18------|
D|----------------------------------------------------|
A|----------------------------------------------------|
E|----------------------------------------------------|


    W           +E  Q  Q  Q      E   H     +Q.      E   +E  Q  Q  Q.
e|--4--------|--(4)-4------------4-|------------------|----------------|
B|--5--------|--(5)----5-----------|-4-----(4)------4-|-(4)-------4----|
G|--6--------|--(6)-------6--------|-4-----(4)--------|-----4-----4----|
D|--6--------|--(6)----------------|-4-----(4)--------|--------4--4----|
A|--4--------|--(4)----------------|-2-----(2)--------|----------------|
E|-----------|---------------------|------------------|----------------|
 |
 |  W           +H.          +Q      H.         +Q       W
e|-----------|---------------------|------------------|----------------|
B|-14--------|-(14)---------(14)S==|=4----------(4)S==|==7-------------|
G|-----------|---------------------|------------------|----------------|
D|-----------|---------------------|------------------|----------------|
A|-----------|---------------------|------------------|----------------|
E|-----------|---------------------|------------------|----------------|


   W              W              H     H
e|--------------|--------------|-------4-------|
B|-2------------|-4------------|-------5-------|
G|-2------------|-4------------|-------6-------|
D|-2------------|-4------------|-6-----6-------|
A|-0------------|-2------------|-4-----4-------|
E|--------------|--------------|---------------|
 |
 | H.      +Q     H.      +Q     H.       +Q
e|--------------|--------------|---------------|
B|-2-------(2)S=|=7-------(7)S=|=9--------(9)--|
G|--------------|--------------|---------------|
D|--------------|--------------|---------------|
A|--------------|--------------|---------------|
E|--------------|--------------|---------------|


   Q              E     E     Q           Q
e|----------------------------8-----------8--------------|
B|-9b11r==========9-----7-----9-----------9--------------|
G|-------------------------------------------------------|
D|-------------------------------------------------------|
A|-------------------------------------------------------|
E|-------------------------------------------------------|
|
| |-----------------------3------------------------|
| S    S S S S S S S S S S S S S S S S S S S S S S S
e|-9----7-6-9-7-6----------------------------------------|
B|----------------9-7-6-9-7-6----------------------------|
G|----------------------------8-6-4-8-6-4----------------|
D|----------------------------------------8-6-4----------|
A|----------------------------------------------8-6-4----|
E|-------------------------------------------------------|


   PM|   PM|         PM|   PM|   PM
   E E E E E E E E   E E E E E E E E
e|-----------------|-----------------|
B|-----5-----5-5-5-|-----5-----5---5-|
G|-----6-----6-6-6-|-----6-----6---6-|
D|-----6-----6-6-6-|-----6-----6---6-|
A|-4-4---4-4-------|-4-4---4-4---4---|
E|-----------------|-----------------|
 |
 | PM---------------------------------
 | E E E E E E E E   E E E E E E E E
e|-----------------|-----------------|
B|-5-5-5-5-5-5-5-5-|-5-5-5-5-5-5-5-5-|
G|-----------------|-----------------|
D|-----------------|-----------------|
A|-----------------|-----------------|
E|-----------------|-----------------|


   PM|   PM|   PM        PM--|       PM--|       PM
   E E E E E E E   E     E   E   E   E   E   E   E   E
e|---------------------|-----------------------------------|
B|-----4-----4-----4---|---------4-----------4-------4-----|
G|-----4-----4-----4---|---------4-----------4-------4-----|
D|-----4-----4-----4---|---------4-----------4-------4-----|
A|-2-2---2-2---2-------|-2---2-------2---2-------2---------|
E|---------------------|-----------------------------------|
|
|-------------------------------------|
| E E E E E E S S S S   S S S S S S S S S S S S S S S S
e|---------------------|-----------------------------------|
B|-4-4-4-4-4-4-4h5p4h5p|=4h5p4h5p4h5p4h5p4h5p4h5p4h5p4h5---|
G|---------------------|-----------------------------------|
D|---------------------|-----------------------------------|
A|---------------------|-----------------------------------|
E|---------------------|-----------------------------------|


   PM|   PM|   PM    PM------|   PM------|       PM----|           PM
   E E E E E E E E   E E E E E E E E   E E E     E     E     E     E     E
e|-----------------|-----------------|-----------------------------------------|
B|-----2-----2---2-|-----------------|-----------------------------------------|
G|-----2-----2---2-|-----------4-----|-----9-----------------9-----------9-----|
D|-----2-----2---2-|-----------4-----|-----9-----------------9-----------9-----|
A|-0-0---0-0---0---|-2-2-2-2-2---2-2-|-7-7-------7-----7-----------7-----------|
E|-----------------|-----------------|-----------------------------------------|
|
| PM------------------------------------|
|                                         |-3-| |-3-| |-3-| |-3-| |-3-| |-3-|
| E E E E E E E E   E E E E E E E E   E E S S S S S S S S S S S S S S S S S S
e|-----------------|-----------------|-4-4-7-5-4-7-5-4-7-5-4-7-5-4-7-5-4-7-5-4-|
B|-5-5-5-5-5-5-5-5-|-4-4-4-4-4-4-4-4-|-----------------------------------------|
G|-----------------|-----------------|-----------------------------------------|
D|-----------------|-----------------|-----------------------------------------|
A|-----------------|-----------------|-----------------------------------------|
E|-----------------|-----------------|-----------------------------------------|


  PM----|           PM----|
  E     E     E     E     E     E     Q

e|-------------------------------7----------------|
B|-------------------------------9----------------|
G|-------------9-----------------9-----9----------|
D|-------------9-----------------------9----------|
A|-7-----7-----------7-----7-----------7----------|
E|------------------------------------------------|
|
| |-3-| |-3-| |-3-| |-3-| |-3-| |-3-| |-3-|
| S S S S S S S S S S S S S S S S S S S S S E
e|-7-5-4-7-5-4-7-5-4-7-5-4-7-5-4-7-5-4-7-5-4-4----|
B|------------------------------------------------|
G|------------------------------------------------|
D|------------------------------------------------|
A|------------------------------------------------|
E|------------------------------------------------|


         PM|   PM    PM|   PM|   PM          PM|   PM    PM|       PM  PM
   Q   E E E E E E   E E E E E E E E   Q   E E E E E E   E E E S S E E E E
e|-----4-----4---4-|-----------------|-----------------|--------------------|
B|-----5-----5---5-|-----------------|-----4-----4---4-|-----4-------4---4--|
G|-6---6-----6---6-|-----6-----6---6-|-----4-----4---4-|-----4-------4---4--|
D|-6---6-----6---6-|-----6-----6---6-|-6---6-----6---6-|-----6-x-x---6---6--|
A|-4-----4-4---4---|-4-4---4-4---4---|-6---6-----6---6-|-----6-x-x---6---6--|
E|-----------------|-----------------|-4-----4-4---4---|-4-4-------4---4----|
|
| PM|   PM|   PM    PM|   PM          PM|   PM|   PM    PM----|
| E E E E E E E E   E E E E E E Q     E E E E E E E E   E E E E   E E E E
e|-----4-----4---4-|-----4---4-7-4---|-----------------|--------------------|
B|-----5-----5---5-|-----5---5-5-5---|-----4-----4---4-|---7---7---4-----4--|
G|-6-6---6-6---6---|-6-6---6---------|-----4-----4---4-|-------------4------|
D|-----------------|-----------------|-6-6---6-6---6---|-6---6---------6----|
A|-----------------|-----------------|-----------------|--------------------|
E|-----------------|-----------------|-----------------|--------------------|


  PM|   PM|   PM    PM|   PM|   PM    PM------------------------------------|
  E E E E E E E E   E E E E E E E E   E  E     E     E     E     E     E     E

e|-----------------|-----------------|---------------------------------------------|
B|-----------------|-----------------|---------------------------------------------|
G|-----------------|-----------------|---------------------------------------------|
D|-----4-----4---4-|-----7-----7---7-|---------------------------------------------|
A|-----4-----4---4-|-----7-----7---7-|-6--6-----6-----6-----6-----6-----6-----6----|
E|-2-2---2-2---2---|-5-5---5-5---5---|-4--4-----4-----4-----4-----4-----4-----4----|
|
| PM------------------------------|
| E E E E E E E E   E E E E E E E E   E  S  S  S  S  S  S  S  S  S  S  S  S  S  S
e|-----------------|-----------------|---------------------------------------------|
B|-----------------|-----------------|---13h14p13h14p13h14p13h14p13h14p13h14p13h14-|
G|-6-6-6-6-6-6-6-6-|-6-6-6-6-6-6-6-6-|---------------------------------------------|
D|-7-7-7-7-7-7-7-7-|-7-7-7-7-7-7-7-7-|---------------------------------------------|
A|-----------------|-----------------|---------------------------------------------|
E|-----------------|-----------------|---------------------------------------------|


   +E         Q.                     H
e|----------------------------------------|
B|----------------------------------------|
G|----------------------------------------|
D|----------------------------------------|
A|-(6)------------------------------------|
E|-(4)------------------------------------|
|
|  |--3---|  |--3---|  |--3--|
|  S   S  S  S   S  S  S  S  S  +E  H
e|-11--12-14-11--12-11--------------------|
B|---------------------12-----------------|
G|------------------------14-13-(13)------|
D|----------------------------------------|
A|----------------------------------------|
E|----------------------------------------|


   Q   E  S S  S  S E E  S  S
e|----------------------------|
B|-5---5--5-5--5--5-5-5--5--5-|
G|-6---6--6-6--6--6-6-6--6--6-|
D|-6---6--6-6--6--6-6-6--6--6-|
A|-7---7--7-7--7--7-7-7--7--7-|
E|-5---5--5-5--5--5-5-5--5--5-|
 |
 | Q  +E  E   +E    Q    E
e|-9--(9)-----------9----9----|
B|-9--(9)-----------9----9----|
G|-9--(9)-9---(9)---9---(9)---|
D|-7--(7)-7---(7)---7---(7)---|
A|----------------------------|
E|----------------------------|


   Q   E  S S  S  S E E S S   Q   E  S S S S  E  E S S
e|--------------------------|-4---4--4-4-4-4--4--4-4-4-|
B|-7---7--7-7--7--7-7-7-7-7-|-4---4--4-4-4-4--4--4-4-4-|
G|-8---8--8-8--8--8-8-8-8-8-|-4---4--4-4-4-4--4--4-4-4-|
D|-9---9--9-9--9--9-9-9-9-9-|-6---6--6-6-6-6--6--6-6-6-|
A|-9---9--9-9--9--9-9-9-9-9-|-6---6--6-6-6-6--6--6-6-6-|
E|-7---7--7-7--7--7-7-7-7-7-|-4---4--4-4-4-4--4--4-4-4-|
 |
 | Q  +E  E   +E    Q   E     Q  +E  Q       +E  E E
e|-7--(7)-7---(7)---9---7---|-7--(7)-7-------(7)-x-9---|
B|-7--(7)-7---(7)---7---7---|-9--(9)-9-------(9)-x-9---|
G|-8--(8)-8---(8)---8---8---|-8--(8)-8-------(8)-------|
D|-9--(9)-9---(9)-------9---|-9--(9)-9-------(9)-------|
A|--------------------------|--------------------------|
E|--------------------------|--------------------------|


   Q   E  S S S S   E  E S S    Q  E S S S S E E S S   Q   E S S S S E E S S
e|-4---4--4-4-4-4---4--4-4-4-|--2--2-2-2-2-2-2-2-2-2-|-4---4-4-4-4-4-4-4-4-4-|
B|-5---5--5-5-5-5---5--5-5-5-|--2--2-2-2-2-2-2-2-2-2-|-4---4-4-4-4-4-4-4-4-4-|
G|-6---6--6-6-6-6---6--6-6-6-|--2--2-2-2-2-2-2-2-2-2-|-4---4-4-4-4-4-4-4-4-4-|
D|-6---6--6-6-6-6---6--6-6-6-|--4--4-4-4-4-4-4-4-4-4-|-6---6-6-6-6-6-6-6-6-6-|
A|-4---4--4-4-4-4---4--4-4-4-|--4--4-4-4-4-4-4-4-4-4-|-6---6-6-6-6-6-6-6-6-6-|
E|---------------------------|--2--2-2-2-2-2-2-2-2-2-|-4---4-4-4-4-4-4-4-4-4-|
 |
 | E E E  Q        +Q    S S    Q  E E   E   E E E     E E E E   E   E Q
e|-x-7-----------------------|--9--x-----------------|-7---------------------|
B|-x-7----9--------(9)-------|-10--x-----------------|-9-----7---9---7-------|
G|-----x--9--------(9)---x-x-|-11--x-9---x---8-x-6---|-8---8-----------------|
D|-----x-11-------(11)---x-x-|-11--x-----------------|-9-9-------------9-----|
A|---------------------------|-----------------------|-----------------------|
E|---------------------------|-----------------------|-----------------------|


   Q   E  S S S S E E S S   E Q    Q   E  Q       Q   E  S S  S  S E E  S  S
e|-4---4--4-4-4-4-4-4-4-4-|-7-7----4---4--4-----|----------------------------|
B|-5---5--5-5-5-5-5-5-5-5-|-7-7----4---4--4-----|-5---5--5-5--5--5-5-5--5--5-|
G|-6---6--6-6-6-6-6-6-6-6-|-8-8----5---5--5-----|-6---6--6-6--6--6-6-6--6--6-|
D|-6---6--6-6-6-6-6-6-6-6-|-9-9----4---4--4-----|-6---6--6-6--6--6-6-6--6--6-|
A|-4---4--4-4-4-4-4-4-4-4-|-9-9----6---6--6-----|-7---7--7-7--7--7-7-7--7--7-|
E|------------------------|-7-7----4---4--4-----|-5---5--5-5--5--5-5-5--5--5-|
 |
 | Q  +E  S S Q     E E     E E E  Q   E  E S S   Q  +E  E   +E    Q    E
e|-4--(4)-4-4-4-----x-9---|-x-7-----------------|-9--(9)-----------9----9----|
B|-5--(5)-5-5-5-----x-9---|-x-7-x--9---9--9-x-x-|-9--(9)-----------9----9----|
G|-6--(6)-6-6-6-----------|-----x--8---8--8-x-x-|-9--(9)-9---(9)---9---(9)---|
D|------------------------|-------10--10-10-----|-7--(7)-7---(7)---7---(7)---|
A|------------------------|---------------------|----------------------------|
E|------------------------|---------------------|----------------------------|


   Q   E  S S  S  S E E S S
e|--------------------------|
B|-7---7--7-7--7--7-7-7-7-7-|
G|-8---8--8-8--8--8-8-8-8-8-|
D|-9---9--9-9--9--9-9-9-9-9-|
A|-9---9--9-9--9--9-9-9-9-9-|
E|-7---7--7-7--7--7-7-7-7-7-|
 |
 | Q  +E  E   +E    Q   E
e|-7--(7)-7---(7)---9---7---|
B|-7--(7)-7---(7)---7---7---|
G|-8--(8)-8---(8)---8---8---|
D|-9--(9)-9---(9)-------9---|
A|--------------------------|
E|--------------------------|


   Q   E  S S S S  E  E S S   Q   E  S S S S   E  E S S
e|-4---4--4-4-4-4--4--4-4-4-|-4---4--4-4-4-4---4--4-4-4-|
B|-4---4--4-4-4-4--4--4-4-4-|-5---5--5-5-5-5---5--5-5-5-|
G|-4---4--4-4-4-4--4--4-4-4-|-6---6--6-6-6-6---6--6-6-6-|
D|-6---6--6-6-6-6--6--6-6-6-|-6---6--6-6-6-6---6--6-6-6-|
A|-6---6--6-6-6-6--6--6-6-6-|-4---4--4-4-4-4---4--4-4-4-|
E|-4---4--4-4-4-4--4--4-4-4-|---------------------------|
 |
 | Q  +E  Q       +E  E E     E E E  Q        +Q    S S
e|-7--(7)-7-------(7)-x-9---|-x-7-----------------------|
B|-9--(9)-9-------(9)-x-9---|-x-7----9--------(9)-------|
G|-8--(8)-8-------(8)-------|-----x--9--------(9)---x-x-|
D|-9--(9)-9-------(9)-------|-----x-11-------(11)---x-x-|
A|--------------------------|---------------------------|
E|--------------------------|---------------------------|


   Q   E S S S S E E  S  S   Q   E S S S S  E  E S S
e|-2---2-2-2-2-2-2-2--2--2-|-4---4-4-4-4-4--4--4-4-4-|
B|-2---2-2-2-2-2-2-2--2--2-|-4---4-4-4-4-4--4--4-4-4-|
G|-2---2-2-2-2-2-2-2--2--2-|-4---4-4-4-4-4--4--4-4-4-|
D|-4---4-4-4-4-4-4-4--4--4-|-6---6-6-6-6-6--6--6-6-6-|
A|-4---4-4-4-4-4-4-4--4--4-|-6---6-6-6-6-6--6--6-6-6-|
E|-2---2-2-2-2-2-2-2--2--2-|-4---4-4-4-4-4--4--4-4-4-|
 |
 | E E E H           +E      E E E Q       +Q    S S
e|-------2-----------(2)---|-------4-------(4)---x-x-|
B|-------2-----------(2)---|-------4-------(4)---x-x-|
G|-2-2-2-2-----------(2)---|-4-4-4-4-------(4)---x-x-|
D|-4-4-4-------------------|-6-6-6-------------------|
A|-4-4-4-------------------|-6-6-6-------------------|
E|-------------------------|-------------------------|


    Q      E S S  S S E    E S S
e|-------------------------------|
B|--5------5-5-5--5-5-5----5-5-5-|
G|--6------6-6-6--6-6-6----6-6-6-|
D|--6------6-6-6--6-6-6----6-6-6-|
A|--7------7-7-7--7-7-7----7-7-7-|
E|--5------5-5-5--5-5-5----5-5-5-|
 |
 |  E S S  E S S  E   S S  E S S
e|--9-x-x--9-x-x--9---x-x--9-x-x-|
B|-10-x-x-10-x-x-10---x-x-10-x-x-|
G|--9-x-x--9-x-x--9---x-x--9-x-x-|
D|-------------------------------|
A|-------------------------------|
E|-------------------------------|


    Q      E S S  S S E    E    S S    Q  E Q      E E S S    Q  +E  E +H
e|----------------------------------|--4--4-4------4-4-4-4-|--4--(4)-4-(4)----|
B|--7------7-7-7--7-7-7----7----7-7-|--7--7-7------7-7-7-7-|--6--(6)-6-(6)----|
G|--8------8-8-8--8-8-8----8----8-8-|--6--6-6------6-6-6-6-|--6--(6)-6-(6)----|
D|--9------9-9-9--9-9-9----9----9-9-|--6--6-6------6-6-6-6-|--6--(6)-6-(6)----|
A|--9------9-9-9--9-9-9----9----9-9-|--4--4-4------4-4-4-4-|--4--(4)-4-(4)----|
E|--7------7-7-7--7-7-7----7----7-7-|----------------------|------------------|
|
|                |-----3-----|
|  E S S  E S S  Q      Q    Q        H       +H             W
e|-11-x-x-11-x-x-11-----11---11-----|--9-------(9)---------|------------------|
B|-12-x-x-12-x-x-12-----12---12-----|--9-------(9)---------|------------------|
G|-11-x-x-11-x-x-11-----11---11-----|-11------(11)---------|-10---------------|
D|----------------------------------|-11------(11)---------|-11---------------|
A|----------------------------------|----------------------|-11---------------|
E|----------------------------------|----------------------|------------------|


   W                 +E  Q   +E  E Q   +E
e|-4---------------|-(4)-------------------|
B|-5---------------|-(5)-5---(5)-----------|
G|-6---------------|-(6)---------6---------|
D|-6---------------|-(6)-----------6---(6)-|
A|-4---------------|-(4)-------------------|
E|-4---------------|-----------------------|
 |
 | PM---------------------------------------
 | E E E E E E E E    E  E E  E  E E E  E
e|-----------------|-----------------------|
B|-9-9-9-9-9-9-9-9-|--9--9-9--9--9-9-9--9--|
G|-9-9-9-9-9-9-9-9-|--9--9-9--9--9-9-9--9--|
D|-----------------|-----------------------|
A|-----------------|-----------------------|
E|-----------------|-----------------------|


   H       +Q.     E   Q     Q   Q     E E
e|-4-------(4)-------|---------------------|
B|-4-------(4)-------|---------------------|
G|-4-------(4)-----6-|-6b8r==6---6b8r==6-4-|
D|-6-------(6)-------|---------------------|
A|-6-------(6)-------|---------------------|
E|-4-------(4)-------|---------------------|
|
|---------------------------------------|
| E E E E  E  E E E   E   E E E E   E E E
e|-------------------|---------------------|
B|-9-9-9-9--9--9-9-9-|-9---9-9-9-9---9-9-9-|
G|-9-9-9-9--9--9-9-9-|-9---9-9-9-9---9-9-9-|
D|-------------------|---------------------|
A|-------------------|---------------------|
E|-------------------|---------------------|


   H       H         H       H         H       H
e|---------2-------|---------4-------|---------4-------|
B|---------2-------|---------4-------|---------5-------|
G|-2-------2-------|-5-------5-------|---------6-------|
D|-4-------4-------|-6-------6-------|---------6-------|
A|-4-------4-------|-6-------6-------|-4---------------|
E|-2---------------|-4---------------|-----------------|
|
| PM------------------------------------------------|
| E E E E E E E E   E E E E E E E E   E E E E E E E E
e|-----------------|-----------------|-----------------|
B|-9-9-9-9-9-9-9-9-|-9-9-9-9-9-9-9-9-|-9-9-9-9-9-9-9-9-|
G|-9-9-9-9-9-9-9-9-|-9-9-9-9-9-9-9-9-|-9-9-9-9-9-9-9-9-|
D|-----------------|-----------------|-----------------|
A|-----------------|-----------------|-----------------|
E|-----------------|-----------------|-----------------|


   H                 H
e|----------------------------------------|
B|-------------------4--------------------|
G|-------------------4--------------------|
D|-------------------4--------------------|
A|-2--------------------------------------|
E|----------------------------------------|
 |
 | E  S S  S S  S S  S S  S S  S S  S S
e|---12-9-12-9-12-9-12-9-12-9-12-9--------|
B|---------------------------------12-9---|
G|----------------------------------------|
D|----------------------------------------|
A|----------------------------------------|
E|----------------------------------------|


    H     H       H                 Q   Q
e|--4----------|---------------------------|
B|--5----------|--5------------------------|
G|--6-----6----|--------------------6------|
D|--6----------|------------------------6--|
A|--4----------|---------------------------|
E|--4----------|---------------------------|
 |
 |  ~~~
 | +W             S S S  S S S  E  +H
e|-------------|-12p9----------------------|
B|-(9)---------|------9h10p9---------------|
G|-------------|-------------9-------------|
D|-------------|---------------11-(11)-----|
A|-------------|---------------------------|
E|-------------|---------------------------|


     H             H                H                    H
e|-----------------4-------------|-----------------------------------|
B|-----------------4-------------|--7--------------------7-----------|
G|---4-------------4-------------|--9b11r================8-----------|
D|---6-------------6-------------|-----------------------------------|
A|---6---------------------------|-----------------------------------|
E|---4---------------------------|-----------------------------------|
|
|                                  |---3----|  |--3--|  |-3--|
|   S  S  E  +H       +E   S  S    E     E  E  E  E  E  E  E E  Q
e|-/11h12p11-(11)-----(11)-14-12-|-14p===12p11-----------------------|
B|-------------------------------|-------------14p12p11--------------|
G|-------------------------------|----------------------13p11s9-11---|
D|-------------------------------|-----------------------------------|
A|-------------------------------|-----------------------------------|
E|-------------------------------|-----------------------------------|


                                                    PM-------------|
    H       H              H               H        E  E E E E E E E

e|-----------2----------|-------------------------|-------------------|
B|-----------2----------|-------------------2-----|-------------------|
G|---2-------2----------|-------------------2-----|--6--6-6-6-6-6-6-6-|
D|---4-------4----------|---2---------------2-----|--6--6-6-6-6-6-6-6-|
A|---4------------------|---0---------------0-----|-------------------|
E|---2------------------|-------------------------|-------------------|
 |
 |  +Q.    Q    E  E  E    +E   E  E  +E   +H        Q.     Q   E Q
e|----------------------|------11-12-(12)-(12)----|-11------7---4-4---|
B|----------------12-14-|-(14)--------------------|-------------------|
G|-(11)---13---14-------|-------------------------|-------------------|
D|----------------------|-------------------------|-------------------|
A|----------------------|-------------------------|-------------------|
E|----------------------|-------------------------|-------------------|


  PM--------------------------|
  E   E   E   E   E   E   E   E     Q   E H    E   Q   H.

e|---------------------------------|--------------|-----------|
B|---------------------------------|--------------|-----------|
G|-5---5---5---5---5---5---5---5---|-5\-----------|-----------|
D|-6---6---6---6---6---6---6---6---|-6\---------6-|-8\--------|
A|---------------------------------|------------6-|-8\--------|
E|---------------------------------|------------4-|-6\--------|
 |
 | S S S S S S S S S S S S S S S S   Q   E H    E   Q   H.
e|-4-4-4-4-4-4-4-4-4-4-4-4-4-4-4-4-|-4\---------4-|-6\--------|
B|-4-4-4-4-4-4-4-4-4-4-4-4-4-4-4-4-|-4\---------4-|-6\--------|
G|---------------------------------|--------------|-----------|
D|---------------------------------|--------------|-----------|
A|---------------------------------|--------------|-----------|
E|---------------------------------|--------------|-----------|


    Q    E   S S   S  S  E E   S  S
e|----------------------------------|
B|--7----7---7-7---7--7--7-7---7--7-|
G|--8----8---8-8---8--8--8-8---8--8-|
D|--8----8---8-8---8--8--8-8---8--8-|
A|--9----9---9-9---9--9--9-9---9--9-|
E|--7----7---7-7---7--7--7-7---7--7-|
 |
 |  Q   +E   E    +E     Q     E
e|-11--(11)-------------11----11----|
B|-11--(11)-------------11----11----|
G|-11--(11)-11---(11)---11---(11)---|
D|--9---(9)--9----(9)----9----(9)---|
A|----------------------------------|
E|----------------------------------|


    Q    E   S  S   S   S  E  E  S  S    Q    E   S S S S   E  E  S S
e|------------------------------------|--6----6---6-6-6-6---6--6--6-6-|
B|--9----9---9--9---9---9--9--9--9--9-|--6----6---6-6-6-6---6--6--6-6-|
G|-10---10--10-10--10--10-10-10-10-10-|--6----6---6-6-6-6---6--6--6-6-|
D|-11---11--11-11--11--11-11-11-11-11-|--8----8---8-8-8-8---8--8--8-8-|
A|-11---11--11-11--11--11-11-11-11-11-|--8----8---8-8-8-8---8--8--8-8-|
E|--9----9---9--9---9---9--9--9--9--9-|--6----6---6-6-6-6---6--6--6-6-|
 |
 |  Q   +E   E     +E      Q     E       Q    E   Q        +E  E  E
e|--9---(9)--9-----(9)----11-----9----|-11----9---9--------(9)-x-11---|
B|--9---(9)--9-----(9)-----9-----9----|-11--(11)-11-------(11)-x-11---|
G|-10--(10)-10----(10)----10----10----|-10--(10)-10-------(10)--------|
D|-11--(11)-11----(11)----------11----|-11--(11)-11-------(11)--------|
A|------------------------------------|-------------------------------|
E|------------------------------------|-------------------------------|


   Q   E  S S S S   E  E S S    Q  E  S S S S  E E S S
e|-6---6--6-6-6-6---6--6-6-6-|--4--4--4-4-4-4--4-4-4-4-|
B|-7---7--7-7-7-7---7--7-7-7-|--4--4--4-4-4-4--4-4-4-4-|
G|-8---8--8-8-8-8---8--8-8-8-|--4--4--4-4-4-4--4-4-4-4-|
D|-8---8--8-8-8-8---8--8-8-8-|--6--6--6-6-6-6--6-6-6-6-|
A|-6---6--6-6-6-6---6--6-6-6-|--6--6--6-6-6-6--6-6-6-6-|
E|---------------------------|--4--4--4-4-4-4--4-4-4-4-|
 |
 | E E E  Q        +Q    S S    Q  E  E   E    E E E
e|-x-9-----------------------|-11--x-------------------|
B|-x-9---11-------(11)-------|-12--x-------------------|
G|-----x-11-------(11)---x-x-|-13--x-11---x---10-x-8---|
D|-----x-13-------(13)---x-x-|-13--x-------------------|
A|---------------------------|-------------------------|
E|---------------------------|-------------------------|


    Q     E S S  S S E  E S S
e|--6-----6-6-6--6-6-6--6-6-6-|
B|--6-----6-6-6--6-6-6--6-6-6-|
G|--6-----6-6-6--6-6-6--6-6-6-|
D|--8-----8-8-8--8-8-8--8-8-8-|
A|--8-----8-8-8--8-8-8--8-8-8-|
E|--6-----6-6-6--6-6-6--6-6-6-|
 |
 |  E  E  E E    E   E  Q
e|--9-------------------------|
B|-11-------9---11---9--------|
G|-10----10-------------------|
D|-11-11---------------11-----|
A|----------------------------|
E|----------------------------|


   Q   E  S S S S E E  S S    E  Q    Q   E  Q
e|-6---6--6-6-6-6-6-6--6-6-|--9--9----6---6--6-----|
B|-7---7--7-7-7-7-7-7--7-7-|--9--9----6---6--6-----|
G|-8---8--8-8-8-8-8-8--8-8-|-10-10----7---7--7-----|
D|-8---8--8-8-8-8-8-8--8-8-|-11-11----6---6--6-----|
A|-6---6--6-6-6-6-6-6--6-6-|-11-11----8---8--8-----|
E|-------------------------|--9--9----6---6--6-----|
 |
 | Q  +E  S S Q     E  E      E  E E  Q   E  E S S
e|-6--(6)-6-6-6-----x-11---|--x--9-----------------|
B|-7--(7)-7-7-7-----x-11---|--x--9-x-11--11-11-x-x-|
G|-8--(8)-8-8-8------------|-------x-10--10-10-x-x-|
D|-------------------------|---------12--12-12-----|
A|-------------------------|-----------------------|
E|-------------------------|-----------------------|


    Q    E   S S   S  S  E E   S  S
e|----------------------------------|
B|--7----7---7-7---7--7--7-7---7--7-|
G|--8----8---8-8---8--8--8-8---8--8-|
D|--8----8---8-8---8--8--8-8---8--8-|
A|--9----9---9-9---9--9--9-9---9--9-|
E|--7----7---7-7---7--7--7-7---7--7-|
 |
 |  Q   +E   E    +E     Q     E
e|-11--(11)-------------11----11----|
B|-11--(11)-------------11----11----|
G|-11--(11)-11---(11)---11---(11)---|
D|--9---(9)--9----(9)----9----(9)---|
A|----------------------------------|
E|----------------------------------|


    Q    E   S  S   S   S  E  E  S  S
e|------------------------------------|
B|--9----9---9--9---9---9--9--9--9--9-|
G|-10---10--10-10--10--10-10-10-10-10-|
D|-11---11--11-11--11--11-11-11-11-11-|
A|-11---11--11-11--11--11-11-11-11-11-|
E|--9----9---9--9---9---9--9--9--9--9-|
 |
 |  Q   +E   E     +E      Q     E
e|--9---(9)--9-----(9)----11-----9----|
B|--9---(9)--9-----(9)-----9-----9----|
G|-10--(10)-10----(10)----10----10----|
D|-11--(11)-11----(11)----------11----|
A|------------------------------------|
E|------------------------------------|


    Q    E   S S S S   E  E  S S   Q   E  S S S S   E  E S S
e|--6----6---6-6-6-6---6--6--6-6-|-6---6--6-6-6-6---6--6-6-6-|
B|--6----6---6-6-6-6---6--6--6-6-|-7---7--7-7-7-7---7--7-7-7-|
G|--6----6---6-6-6-6---6--6--6-6-|-8---8--8-8-8-8---8--8-8-8-|
D|--8----8---8-8-8-8---8--8--8-8-|-8---8--8-8-8-8---8--8-8-8-|
A|--8----8---8-8-8-8---8--8--8-8-|-6---6--6-6-6-6---6--6-6-6-|
E|--6----6---6-6-6-6---6--6--6-6-|---------------------------|
 |
 |  Q   +E   Q        +E  E  E     E E E  Q        +Q    S S
e|--9---(9)--9--------(9)-x-11---|-x-9-----------------------|
B|-11--(11)-11-------(11)-x-11---|-x-9---11-------(11)-------|
G|-10--(10)-10-------(10)--------|-----x-11-------(11)---x-x-|
D|-11--(11)-11-------(11)--------|-----x-13-------(13)---x-x-|
A|-------------------------------|---------------------------|
E|-------------------------------|---------------------------|


   Q   E S S S S E E  S  S   Q   E S S S S  E  E S S
e|-4---4-4-4-4-4-4-4--4--4-|-6---6-6-6-6-6--6--6-6-6-|
B|-4---4-4-4-4-4-4-4--4--4-|-6---6-6-6-6-6--6--6-6-6-|
G|-4---4-4-4-4-4-4-4--4--4-|-6---6-6-6-6-6--6--6-6-6-|
D|-6---6-6-6-6-6-6-6--6--6-|-8---8-8-8-8-8--8--8-8-8-|
A|-6---6-6-6-6-6-6-6--6--6-|-8---8-8-8-8-8--8--8-8-8-|
E|-4---4-4-4-4-4-4-4--4--4-|-6---6-6-6-6-6--6--6-6-6-|
 |
 | E E E H           +E      E E E Q       +Q    S S
e|-------4-----------(4)---|-------6-------(6)---x-x-|
B|-------4-----------(4)---|-------6-------(6)---x-x-|
G|-4-4-4-4-----------(4)---|-6-6-6-6-------(6)---x-x-|
D|-6-6-6-------------------|-8-8-8-------------------|
A|-6-6-6-------------------|-8-8-8-------------------|
E|-------------------------|-------------------------|


    Q      E S S  S S E    E S S
e|-------------------------------|
B|--7------7-7-7--7-7-7----7-7-7-|
G|--8------8-8-8--8-8-8----8-8-8-|
D|--8------8-8-8--8-8-8----8-8-8-|
A|--9------9-9-9--9-9-9----9-9-9-|
E|--7------7-7-7--7-7-7----7-7-7-|
 |
 |  E S S  E S S  E   S S  E S S
e|-11-x-x-11-x-x-11---x-x-11-x-x-|
B|-12-x-x-12-x-x-12---x-x-12-x-x-|
G|-11-x-x-11-x-x-11---x-x-11-x-x-|
D|-------------------------------|
A|-------------------------------|
E|-------------------------------|


    Q      E  S  S  S  S  E     E     S  S
e|-----------------------------------------|
B|--9------9--9--9--9--9--9-----9-----9--9-|
G|-10-----10-10-10-10-10-10----10----10-10-|
D|-11-----11-11-11-11-11-11----11----11-11-|
A|-11-----11-11-11-11-11-11----11----11-11-|
E|--9------9--9--9--9--9--9-----9-----9--9-|
|
|                  |------3-------|
|  E S S  E  S  S  Q        Q     Q
e|-13-x-x-13--x--x-13-------13----13-------|
B|-14-x-x-14--x--x-14-------14----14-------|
G|-13-x-x-13--x--x-13-------13----13-------|
D|-----------------------------------------|
A|-----------------------------------------|
E|-----------------------------------------|


    Q  E Q      E E S S    Q   +E  E +H
e|--6--6-6------6-6-6-6-|--6---(6)-6-(6)----------|
B|--9--9-9------9-9-9-9-|--8---(8)-8-(8)----------|
G|--8--8-8------8-8-8-8-|--8---(8)-8-(8)----------|
D|--8--8-8------8-8-8-8-|--8---(8)-8-(8)----------|
A|--6--6-6------6-6-6-6-|--6---(6)-6-(6)----------|
E|----------------------|-------------------------|
 |
 |  H       +H             H.              E   E
e|-11------(11)---------|-------------------------|
B|-11------(11)---------|---------------------14--|
G|-13------(13)---------|-12--------------15-(15)-|
D|-13------(13)---------|-13----------------------|
A|----------------------|-13----------------------|
E|----------------------|-------------------------|


     Q      E  S   S   S  S  E     E     S  S    Q           E      S  S  S  S  E  E  S  S
e|--------------------------------------------|--------------------------------------------|
B|---7------7--7---7---7--7--7-----7-----7--7-|--9-----------9------9--9--9--9--9--9--9--9-|
G|---8------8--8---8---8--8--8-----8-----8--8-|-10----------10-----10-10-10-10-10-10-10-10-|
D|---8------8--8---8---8--8--8-----8-----8--8-|-11----------11-----11-11-11-11-11-11-11-11-|
A|---9------9--9---9---9--9--9-----9-----9--9-|-11----------11-----11-11-11-11-11-11-11-11-|
E|---7------7--7---7---7--7--7-----7-----7--7-|--9-----------9------9--9--9--9--9--9--9--9-|
 |
 |  +E   E  E  S   S   S  S  S  S  S  S  S  S    S  S  S  S  S  E.        Q        E  E
e|--------------------------------------------|-----------------------------------11-14----|
B|-(14)-------11-(11)-------------------------|----------------11--------14----------------|
G|-(15)-11-13-----11--13p11----------11-13p11-|--------------------------------------------|
D|--------------------------13p11-13----------|-13p12h13p12--------------------------------|
A|--------------------------------------------|--------------------------------------------|
E|--------------------------------------------|--------------------------------------------|


     Q      E  S  S   S   S      E    E   S  S
e|---6------6--6--6---6---6------6----6---6--6-----|
B|---6------6--6--6---6---6------6----6---6--6-----|
G|---6------6--6--6---6---6------6----6---6--6-----|
D|---8------8--8--8---8---8------8----8---8--8-----|
A|---8------8--8--8---8---8------8----8---8--8-----|
E|---6------6--6--6---6---6------6----6---6--6-----|
 |
 |  +E   E  E  S  S  +S   S      E   +E   S  S
e|-(14)-13-14-13----------------11--(11)-----------|
B|---------------14-(14)p11----(11)------11-11-----|
G|-----------------------13b15--------------13b15--|
D|-------------------------------------------------|
A|-------------------------------------------------|
E|-------------------------------------------------|


     Q         E  S      S    S   S  E E  S S     Q            E  S S  S S  E  E  S    S
e|---6---------6--6------6----6---6--6-6--6-6-|---4------------4--4-4--4-4--4--4--4----4----|
B|---7---------7--7------7----7---7--7-7--7-7-|---4------------4--4-4--4-4--4--4--4----4----|
G|---8---------8--8------8----8---8--8-8--8-8-|---4------------4--4-4--4-4--4--4--4----4----|
D|---8---------8--8------8----8---8--8-8--8-8-|---6------------6--6-6--6-6--6--6--6----6----|
A|---6---------6--6------6----6---6--6-6--6-6-|---6------------6--6-6--6-6--6--6--6----6----|
E|--------------------------------------------|---4------------4--4-4--4-4--4--4--4----4----|
|
|                                                    |--3--|                     |---3---|
|  +S   S  E  E  S      S   +S   S  E E  E      +E   S  S  S  E  E    E    E  E  S  S    S
e|----------------------------------11---16---|-(16)-14-16-14-14-14---14---13-14-13h14p==13-|
B|-(11)-11-11-11-11-----11--(11)-11-----------|---------------------------------------------|
G|-(13)----------13b15r(13)-(13)--------------|---------------------------------------------|
D|--------------------------------------------|---------------------------------------------|
A|--------------------------------------------|---------------------------------------------|
E|--------------------------------------------|---------------------------------------------|


     Q      E  S S  S    S  E     E     S    S
e|---6------6--6-6--6----6--6-----6-----6----6--|
B|---6------6--6-6--6----6--6-----6-----6----6--|
G|---6------6--6-6--6----6--6-----6-----6----6--|
D|---8------8--8-8--8----8--8-----8-----8----8--|
A|---8------8--8-8--8----8--8-----8-----8----8--|
E|---6------6--6-6--6----6--6-----6-----6----6--|
 |
 |  +E   E  E  E    E       E     E     E
e|-(13)-13s11------11------11----11----11-------|
B|------------14---14b16---14b16-14b16-14b16----|
G|----------------------------------------------|
D|----------------------------------------------|
A|----------------------------------------------|
E|----------------------------------------------|


    Q            E    Q            E    E    S  S
e|--6------------6----6------------6----6----6--6----|
B|--9------------9----9------------9----9----9--9----|
G|--8------------8----8------------8----8----8--8----|
D|--8------------8----8------------8----8----8--8----|
A|--6------------6----6------------6----6----6--6----|
E|---------------------------------------------------|
 |
 |  E    S  E      S  E    S  E      S  E    S  S
e|-11------11--------11------11--------11------11----|
B|-14b16---14b16-----14b16---14b16-----14b16---14b16-|
G|---------------------------------------------------|
D|---------------------------------------------------|
A|---------------------------------------------------|
E|---------------------------------------------------|


     Q          +E        E +H              Q          E        S S  S S  E     E  S S
e|---6----------(6)-------6-(6)----------|-----------------------------------------------|
B|---8----------(8)-------8-(8)----------|--7----------7--------7-7--7-7--7-----7--7-7---|
G|---8----------(8)-------8-(8)----------|--8----------8--------8-8--8-8--8-----8--8-8---|
D|---8----------(8)-------8-(8)----------|--8----------8--------8-8--8-8--8-----8--8-8---|
A|---6----------(6)-------6-(6)----------|--9----------9--------9-9--9-9--9-----9--9-9---|
E|---------------------------------------|--7----------7--------7-7--7-7--7-----7--7-7---|
 |
 |  +S  S  E     S   E.      E  S S E  E    E  T  T  E    T  T  E    E    S  S  E  E
e|-(11)---11--------11-------------------|-18-------18---------18--------18-------18-----|
B|-(14)---14b16-----14b16-------x-----19-|-------19---------19------19------19-----------|
G|--------------------------------x------|----20---------20--------------------20--------|
D|----------------------------------x----|-----------------------------------------------|
A|---------------------------------------|-----------------------------------------------|
E|---------------------------------------|-----------------------------------------------|


    Q        E     S  S  S  S  E  E  S  S
e|----------------------------------------|
B|--9--------9-----9--9--9--9--9--9--9--9-|
G|-10-------10----10-10-10-10-10-10-10-10-|
D|-11-------11----11-11-11-11-11-11-11-11-|
A|-11-------11----11-11-11-11-11-11-11-11-|
E|--9--------9-----9--9--9--9--9--9--9--9-|
 |
 |  E  S  S  S  S  S  S  E     E  E  S  S
e|-18-21p18-21p18-19p18-18-------18-------|
B|----------------------------21----19-17-|
G|----------------------------------------|
D|----------------------------------------|
A|----------------------------------------|
E|----------------------------------------|


   Q             E       S    S     S  S  E     E     S  S
e|-6-------------6-------6----6-----6--6--6-----6-----6--6--|
B|-6-------------6-------6----6-----6--6--6-----6-----6--6--|
G|-6-------------6-------6----6-----6--6--6-----6-----6--6--|
D|-8-------------8-------8----8-----8--8--8-----8-----8--8--|
A|-8-------------8-------8----8-----8--8--8-----8-----8--8--|
E|-6-------------6-------6----6-----6--6--6-----6-----6--6--|
|
| |-------------9:8-------------|
| S  S  S  S  S    S  S    S    S  S  S  S  S  S  S  S  S
e|---------------------------------------------21----18-21--|
B|-x-19-21-18-19---21-18---19---18-19-21-21-21----21--------|
G|----------------------------------------------------------|
D|----------------------------------------------------------|
A|----------------------------------------------------------|
E|----------------------------------------------------------|


    Q           E     S  S  S    S   E        E       S    S
e|--6-----------6-----6--6--6----6---6--------6-------6----6----|
B|--7-----------7-----7--7--7----7---7--------7-------7----7----|
G|--8-----------8-----8--8--8----8---8--------8-------8----8----|
D|--8-----------8-----8--8--8----8---8--------8-------8----8----|
A|--6-----------6-----6--6--6----6---6--------6-------6----6----|
E|--------------------------------------------------------------|
|
|                          |--------------10:8---------------|
|  S  S  S  S  S  S  S  S  S  S   S    S  S  S  S  S    S    S
e|-18-21-18-------------18-19-21---x---18---------------18---19-|
B|----------21-18-19-21-------------------21-18-19-21-----------|
G|--------------------------------------------------------------|
D|--------------------------------------------------------------|
A|--------------------------------------------------------------|
E|--------------------------------------------------------------|


    Q           E     S  S  S  S  E    E     S    S
e|--4-----------4-----4--4--4--4--4----4-----4----4----|
B|--4-----------4-----4--4--4--4--4----4-----4----4----|
G|--4-----------4-----4--4--4--4--4----4-----4----4----|
D|--6-----------6-----6--6--6--6--6----6-----6----6----|
A|--6-----------6-----6--6--6--6--6----6-----6----6----|
E|--4-----------4-----4--4--4--4--4----4-----4----4----|
|
|                                           |---3---|
|  S  S  S  S  S  S  S  S  S  S  S S  S  S  S  S    S
e|-19-21-18-------------19-21---------19-21------------|
B|----------21-18-19-21-------18-21-0-------18-19---21-|
G|-----------------------------------------------------|
D|-----------------------------------------------------|
A|-----------------------------------------------------|
E|-----------------------------------------------------|


    Q                E          S    S    S  S  E     E    S  S
e|--6----------------6----------6----6----6--6--6-----6----6--6-|
B|--6----------------6----------6----6----6--6--6-----6----6--6-|
G|--6----------------6----------6----6----6--6--6-----6----6--6-|
D|--8----------------8----------8----8----8--8--8-----8----8--8-|
A|--8----------------8----------8----8----8--8--8-----8----8--8-|
E|--6----------------6----------6----6----6--6--6-----6----6--6-|
|
|  |---------------11:8----------------|
|  S  S  S  S  S  S    S  S  S    S    S S  S  S  S  S S  S  S
e|-19-21----------18---19-21--------------x-19-21-------x-19-21-|
B|-------18-19-21------------18---19---21---------18-21---------|
G|--------------------------------------------------------------|
D|--------------------------------------------------------------|
A|--------------------------------------------------------------|
E|--------------------------------------------------------------|


    Q       E Q     E E S S    W
e|--6-------6-6-----6-6-6-6-|--6---------------*|
B|--9-------9-9-----9-9-9-9-|--8---------------*|
G|--8-------8-8-----8-8-8-8-|--8---------------*|
D|--8-------8-8-----8-8-8-8-|--8---------------*|
A|--6-------6-6-----6-6-6-6-|--6---------------*|
E|--------------------------|------------------*|
 |
 |                             ~~~~~
 |  S  H        Q..            H.         +Q
e|-21-21b23r================|==================*|
B|--------------x-----------|-11---------(11)--*|
G|--------------x\----------|-13b15------(13)--*|
D|--------------x-----------|------------------*|
A|--------------------------|------------------*|
E|--------------------------|------------------*|



************************************

| x    Dead note
| (n)  Ghost note
| h    Hammer-on
| p    Pull-off
| r    Release
| b    Bend
| /    Slide up
| \    Slide down
| s    Slide

************************************
Suggest correction
comments
print report bad tab
guest
You may want to rate the tab now too:
select rating
Wanna post a correction for this tab? Suggest correction