Oops, an error
Loading. Please wait.

Wont Be Taken Down chords

25 views 1 this week
no commentswrite comment
1 2 3 4 5
3 more votes to show rating
add to favorites
×
Save as Personal and add changes to this tab that will be seen only by you. Learn more ›
×
You can save this tab as Personal to edit and correct it or add notes. All changes will be seen only by you. Learn more »
launch autoscroll
font size
0
reset
transpose
0
reset
simplify chords
display chords
guitar tuner
edit
Autoscroll
slow
fast
+/-
esc
set tempo
stop
About this tab version
Added lyrics and tabbed intro and first solo. Was this info helpful? Yes No
Strumming
There is no strumming pattern for this song yet. and get +5 IQ
Album: Eyes Wide Open (2016)

Tabbed by: Kevin
Tuning: Drop Down ½ Step
Eb Bb Gb Db Ab Eb
4/4 

notes 
intro/verse:  guitar stays on Bm 2 bars then A 2 bars or with descending Bass line
              Verse lyrics are suspect
              (single notes in brackets)

[Intro]
Bm    Bm/A#    A    A/G#    G    D    Em    F#m
eb|-------------------------------------------------------------------|
Bb|-----12/14~--14br-r-p12~--------12/14~-----15h17p15\14\12~---------|
Gb|-11-----------------------11-11------------------------------------|
Db|-------------------------------------------------------------------|
Ab|-------------------------------------------------------------------|
Eb|-------------------------------------------------------------------|

eb|----7-9-9br--7-----------------------------------------------------|
Bb|--7------------10~--8-7br7~-----------7b-7~------------------------|
Gb|-------------------------------9p7h9-----------9p7\6---------------|
Db|------------------------------------------------------8-9~---------|
Ab|-------------------------------------------------------------------|
Eb|-------------------------------------------------------------------|

[Verse]
Bm                    Bm/A#   
Ohh- So Often         She Didn't get it right
A                     A/G#
Always So             Diggin in the night
G                     D
She muddled time      As there into comedies  
Em                     F#m
She grew strong       takes more than that to bleed

Bm                    Bm/A#
Everywhere she goes   Eyes burn into her skin
A                     A/G#
People Just but       They Don't know a thing
G                     D
Deep inside           She knows her worth
Em                    F#m
She carries on        Un-deturbed

[Pre-Chorus]
G                         Bm 
Ohh-           All of her life
  G             A          Bm
She's had a deal     with a jealous kind
    A                          Bm
She Kno-ws   She's better than that
G                                 A
They won't break her spirit  Ohh- not this time

[Chorus]
Bm                        A 
Try to knock her down     try to trip her up       
Em                  D         Bm       (single notes G,F#,D)
Her fire was burning     Deep down inside
Bm                              A
She's gonna stand her ground    She's gonna live her life
    G            F# Em     Bm
She won't be taken        Down this time

[Solo]
Bm    Bm/A#    A    A/G#    G    D    Em    F#m
eb|----------------------------------------------12-------------------|
Bb|-----12/14~--14b-r-p12~--------12/14~-----14b---r14-12~------------|
Gb|-11-----------------------11-11------------------------------------|
Db|-------------------------------------------------------------------|
Ab|-------------------------------------------------------------------|
Eb|-------------------------------------------------------------------|

eb|-----------12~---14b-14b-r14p12--14b-r14p12-----12\----------------|
Bb|-12-14-15-----------------------------------14b--------------------|
Gb|-------------------------------------------------------------------|
Db|-------------------------------------------------------------------|
Ab|-------------------------------------------------------------------|
Eb|-------------------------------------------------------------------|

eb|--18b---18-17h18p17p15------18-------------------------------------|
Bb|----------------------18-18b--r18-17~------------------------------|
Gb|-------------------------------------------------------------------|
Db|-------------------------------------------------------------------|
Ab|-------------------------------------------------------------------|
Eb|-------------------------------------------------------------------|

G                         Bm 
Ohh-           All of her life
  G             A          Bm
She's had a deal     with a jealous kind
    A                          Bm
She Kno-ws   She's better than that
G                                 A
They won't break her spirit  Ohh- not this time
Bm                        A 
Try to knock her down     try to trip her up       
Em                  D         Bm       (single notes G,F#,D)
Her fire was burning     Deep down inside
Bm                              A
She's gonna stand her ground    She's gonna live her life
    G            F# Em     Bm
She won't be taken        Down this time

[Solo]
Bm    Bm/A#    A    A/G#    G    D    Em    F#m  (x3)

[Outro]
Bm      A      G   F# Em       Bm (G,F#,D)
Bm      A      G   F# Em       Bm (G,F#,D)
Bm      A      G   F# Em       G   F# Em      G   A  Bm


***********************************

| b (1.5)
| b bend
| / slide
| h hammer on
| p pull off
| rb rebend
| x mute with fretboard hand and hit it with picking hand
| ~ vibrato 

***********************************
Suggest correction
Creating personal tab
Creating personal tab
You can edit any tab online and save it as your Personal.

You can edit, replace or remove any tab part or add personal notes – all changes will be seen only by you.

Personal tabs can be accessed anytime from any device, even offline.
Learn more »
Give kudos to tab author, rate the tab!
1 2 3 4 5
comments
print report bad tab
guest
You may want to rate the tab now too:
select rating
Wanna post a correction for this tab? Suggest correction