Oops, an error
Loading. Please wait.

And The Druids Turn To Stone Tab

1,177 views 3 this week
no commentswrite comment
1 2 3 4 5
excellent!
x 8
add to favorites
launch autoscroll
font size
0
reset
how to read this tab
guitar tuner
Tab Pro tools
  • play this tab
  • loop segment
  • change instrument
  • show fretboard
  • metronome
×
Best way to learn
"And The Druids Turn To Stone"
Autoscroll
slow
fast
+/-
esc
set tempo
stop
Contributor
Difficulty
intermediate
                                         Artist - Ayreon
                                        *****************
                               Song - And The Druids Turn To Stone
                              *************************************
                     Album - Universal Migrator Part 1 : The Dream Sequencer
                    *********************************************************


Intro - Synth - F#m Dbm A E D Dbm F#m Esus
******************

00:13
Acoustic - A Dbm A Dbm
*********

00:28
Slide
******
    A         Dbm      A          Dbm
[---s-------s----------s------------s----s-s---]
[--8\10---12\9--------8\10---12---14\9--8\9\8--]
[----------------------------------------------]
[----------------------------------------------]
[----------------------------------------------]
[----------------------------------------------]

00:43
Organ
******
D                   F#m     D              F#m
  The moon sheds no light     on Salisbury plain
D                  F#m           E
  The day turns to night and the bonfires cease burning
D                   F#m     D                         F#m    
  The druids gather round     and the chants fill the air
D              F#m             E                  D
  Their echoes resound and the living world stops turning


01:41
Chorus
*******
A                     Bm
  The magic words are spoken
A                          Bm
  As we leave the plain in silence
A                       Bm
  Now the circle stands alone       SYNTH
A                        F#m Dbm A E D Dbm F#m Esus  
  And the druids turn to stone

02:16
Slide
******
   A         Dbm       A          Dbm
[---s-------s---------s-------------s-----s-s--s----]
[--8\10---12\9-------9\10----12---14\9---8\9\8-\----]
[---------------------------------------------------]
[---------------------------------------------------]
[---------------------------------------------------]
[---------------------------------------------------]
|                                                   |
|                                                   |
[---------------------------------------------------]
[---s------s---------s-------------s------s--s---s--]
[-12\14--16\13-----13\14----16---18\13--13\14\13-\--]
[---------------------------------------------------]
[---------------------------------------------------]
[---------------------------------------------------]

02:32
D                     F#m     D              F#m
  The dawn shines its light     on Salisbury plain
D                    F#m        E              D
  The day floods the night with gilded rays of sunshine

03:00
Chorus
*******
A                      Bm
  The magic words were spoken
A                         Bm
  As we left the plain in silence
A                       Bm
  Then the circle stood alone       GUITAR SOLO 1
A                          F#m Dbm A E D Dbm F#m Esus
  And the druids turned to stone

03:22
  Solo 1 - Guitar 1
  ******************
[------------------------------------------------------------------------]
[-------------------------------------------------15---------------------]
[-----13-14----13-------13-14-16-13-14---14-16-18----16-----13-14-13-----]
[--16-------16------14----------------------------------14-----------14--]
[------------------------------------------------------------------------]
[------------------------------------------------------------------------]
|                                                                        |
| Solo 1 - Guitar 2                                                      |
| ******************                                                     |
[-----------------------------------------------9-10---------------------]
[-----9-10-----9--------9-10-12--9--10---10-12-------12-----9--10-9------]
[--10------10-------9------------------------------------9-------------9-]
[------------------------------------------------------------------------]
[------------------------------------------------------------------------]
[------------------------------------------------------------------------]

  Solo 1 - Guitar 1
  ******************
[------------------------------------------------------------------------]
[----------------------------------------------------15-----------16-17--]
[--------13-14----13-------13-14-16-13-14---14-16-18----16--16-18--------]
[-16--16-------16------14------------------------------------------------]
[------------------------------------------------------------------------]
[------------------------------------------------------------------------]
|                                                                        |
| Solo 1 - Guitar 2                                                      |
| ******************                                                     |
[--------------------------------------------------9-10--------9--10-12--]
[--------9-10-----9--------9-10-12--9--10---10-12-------12--12-----------]
[-10--10---------------9-------------------------------------------------]
[------------------------------------------------------------------------]
[------------------------------------------------------------------------]
[------------------------------------------------------------------------]

03:35
Solo 2 
*******
F Bb Eb A F Bb A D Dsus
[---------------------------------------|--------------------------|--------]
[----s----13---br-----------------------|---------------b---rbp----|--rbp---]
[--12\14------12--10---s---10-12---s----|----s---12-14-14--14--12--|-14--12-]
[--------------------10\12-------10\12--|--10\12-------------------|--------]
[---------------------------------------|--------------------------|--------]
[---------------------------------------|--------------------------|--------]

                                                               h        Slow
[-b----------------rb------------------|---------------------15-17--------b-]
[15----s---15-17--17-15----------------|--------------s---17-------17-17-17-]
[----12\14----------------s------------|---------10-12\14-------------------]
[-----------------------15\14-12---s---|--s---12----------------------------]
[--------------------------------13\12-|10\12-------------------------------]
[--------------------------------------|------------------------------------]

04:05
Organ
******
F                   Bb       Eb                    A
  The rising sun is dancing    on the edges of the stones
F                           Bb
  Casting shadows, creeping down the Avenue
A                       D
  Into the heart of the sarsen trilithons

04:33
Heavier Guitar
***************
F                  Bb        Eb                A
  I marvel at this mystery,    beholder of the stars
F                  Bb
  A holy temple, a sacred burial ground
A                                   E
  Guarding well its secrets from us all

04:59
Synth
******
D F#m D F#m D F#m E

05:36
D                   F#m     D              F#m
  The moon sheds no light     on Salisbury plain
D                  F#m           E              D
  The day turns to night and the bonfires cease burning

06:04
Chorus
*******
A                      Bm
  The magic words were spoken
A                         Bm
  As we left the plain in silence
A                       Bm
  Then the circle stood alone
                         
  And the druids turned to stone


Excellent Ayreon Track Enjoy..............
comments
print report bad tab
I want to post or [tab]
guest
You may want to rate the tab now too:
select rating
Please do not post tabs as comments. Select "correction" instead!