Oops, an error
Loading. Please wait.

Day Six Childhood Tab

version 1
version 1

Solo

Interactive

1,150 views 1 this week
no commentswrite comment
1 2 3 4 5
3 more votes to show rating
add to favorites
launch autoscroll
font size
0
reset
how to read this tab
guitar tuner
Autoscroll
slow
fast
+/-
esc
set tempo
stop
Help us to improve Ultimate-Guitar.com Take our survey!
×
Author
-------------------------------------------------------------------------------
                             Day Six: Childhood - Ayreon
-------------------------------------------------------------------------------
Tabbed by: Vivec
Email: inx47@hotmail.com

Tabbed by ear, this is 100% correct solo.

e|--------------------------------------------------------------|
B|------------15/13-12------------------------------------------|
G|-/16~~~~--16---------12---14/16(cope with whammy bar)---------|
D|--------14--------------14------------------------------------|
A|--------------------------------------------------------------|
E|--------------------------------------------------------------|

e|--------------------------------------------------------------|
B|------------15/13-12------------------------------------------|
G|----------16---------12---14/16~~~~~~-------------------------|
D|--------14--------------14------------------------------------|
A|--------------------------------------------------------------|
E|--------------------------------------------------------------|

e|------(cope)--------------------------------------------------|
B|-----15~/17\15~~~--15-13-12-----------------------------------|
G|---16-----------------------14~~------------------------------|
D|-14---------~-------------------------------------------------|
A|--------------------------------------------------------------|
E|--------------------------------------------------------------|

A little break.

e|--------------------------------------------------------------|
B|------------15-13-12------------------------------------------|
G|-/16~~~~--16---------12---14/16(cope)-------------------------|
D|--------14--------------14------------------------------------|
A|--------------------------------------------------------------|
E|--------------------------------------------------------------|

e|--------------------------------------------------------------|
B|------------15-13-12------------------------------------------|
G|----------16---------12---14-16~~~~~~-------------------------|
D|--------14--------------14------------------------------------|
A|--------------------------------------------------------------|
E|--------------------------------------------------------------|


e|------(cope)-------------14~---14-----------------------------|
B|-----15~/17\15~~~--15-17----------17-15-13--------------------|
G|---16---------------------------------------------------------|
D|-14---------~-------------------------------------------------|
A|--------------------------------------------------------------|
E|--------------------------------------------------------------|

Coping is done when you gently push/pull the whammy bar and then getting it back to the 
point. You have to practice to get the right tone.

| /  slide up
| \  slide down
| h  hammer-on
| p  pull-off
| ~  vibrato
| +  harmonic
| x  Mute note
Suggest correction
Give kudos to tab author, rate the tab!
1 2 3 4 5
comments
print report bad tab
guest
You may want to rate the tab now too:
select rating
Wanna post a correction for this tab? Suggest correction