Oops, an error
Loading. Please wait.

Day Six Childhood Tab

version 2
version 2

Solo

Interactive

930 views 1 this week
no commentswrite comment
1 2 3 4 5
please rate
add to favorites
launch autoscroll
font size
0
reset
how to read this tab
guitar tuner
Autoscroll
slow
fast
+/-
esc
set tempo
stop
Help us to improve Ultimate-Guitar.com Take our survey!
×
Author
Solo Guitar
              H         Q.       E      E   Q.      Q.      E      Q     Q.     Q     E   
E||-------|-------------------------|--------------------------|-------------------------|
B||-------|--12~--------L-----------|------15------13------12--|---L----10-----------10--|
G||-------|--------------------/12--|--14----------------------|----------------9--------|
D||-------|-------------------------|--------------------------|-------------------------|
A||-------|-------------------------|--------------------------|-------------------------|
E||-------|-------------------------|--------------------------|-------------------------|


   H         Q.       E      E   Q.      Q.      E      Q     Q.     Q     E   
-------------------------|--------------------------|-------------------------|
--12~--------L-----------|------15------13------12--|---L----10-----------10--|
--------------------/12--|--14----------------------|----------------9--------|
-------------------------|--------------------------|-------------------------|
-------------------------|--------------------------|-------------------------|
-------------------------|--------------------------|-------------------------|


                                                                               \1  
   H         Q.       E      E   Q.      E   Q.          Q.      Q     E   E   E   
-------------------------|----------------------------|---------------------------|
--12~--------L-----------|------15------17--15\~------|--L------15----13--12--10--|
--------------------/12--|--14------------------------|---------------------------|
-------------------------|----------------------------|---------------------------|
-------------------------|----------------------------|---------------------------|
-------------------------|----------------------------|---------------------------|


  W                                        H         Q.       E   
-------------------|-------------------|-------------------------|
--L----------------|-------------------|--12~--------L-----------|
-------------------|-------------------|--------------------/12--|
-------------------|-------------------|-------------------------|
-------------------|-------------------|-------------------------|
-------------------|-------------------|-------------------------|


   E   Q.      Q.      E      Q     Q.     Q     E      H         Q.       E   
--------------------------|-------------------------|-------------------------|
------15------13------12--|---L----10-----------10--|--12~--------L-----------|
--14----------------------|----------------9--------|--------------------/12--|
--------------------------|-------------------------|-------------------------|
--------------------------|-------------------------|-------------------------|
--------------------------|-------------------------|-------------------------|


   E   Q.      Q.      E      Q     Q.     Q     E      H         Q.       E   
--------------------------|-------------------------|-------------------------|
------15------13------12--|---L----10-----------10--|--12~--------L-----------|
--14----------------------|----------------9--------|--------------------/12--|
--------------------------|-------------------------|-------------------------|
--------------------------|-------------------------|-------------------------|
--------------------------|-------------------------|-------------------------|


   E   Q.      E   Q.         Q.      Q     Q     E       H        Q     Q     
---------------------------|---------------------------|----------------------|
------15------17--15~------|--L------15----17----19\~--|--L--------L----19----|
--14-----------------------|---------------------------|----------------------|
---------------------------|---------------------------|----------------------|
---------------------------|---------------------------|----------------------|
---------------------------|---------------------------|----------------------|


           \1              
   E   E   H.              
-------------------------||
--17--15--13~------------||
-------------------------||
-------------------------||
-------------------------||
-------------------------||




Duration Legend
---------------
W - whole
H - half
Q - quarter
E - 8th
. - note dotted


Tablature Legend
----------------
L - tied note
/ -  slide into from below or out of upwards
\ -  slide into from above or out of downwards
~ - vibrato
Suggest correction
Give kudos to tab author, rate the tab!
1 2 3 4 5
comments
print report bad tab
guest
You may want to rate the tab now too:
select rating
Wanna post a correction for this tab? Suggest correction