Oops, an error
Loading. Please wait.

Epilogue The Memory Remains Tab

388 views 3 this week
1 commentread comment
1 2 3 4 5
please rate
add to favorites
launch autoscroll
font size
0
reset
how to read this tab
guitar tuner
Autoscroll
slow
fast
+/-
esc
set tempo
stop
Help us to improve Ultimate-Guitar.com Take our survey!
×
Author
Ayreon - Epilogue: The Memory Remains (solos)
From the 2008 compilation album "Timeline"

Words and music by Arjen Lucassen

Transcription by Travis Lausch


Notes: I figured out the solos by watching the playthroughs 
on the DVD portion of the "Timeline" box set. Both solos are 
in standard tuning. The Lori Linstruth solo is incomplete, 
even despite the video, because her fingers are just all 
over the place on that one arpeggio, which starts with a 
long slide down the neck (see her solo in Stream Of Passion's 
"Passion" for another great example of this). Despite this,
I've presented the solos exactly as they're played on the DVD. 
They may not be played this way in the final recordings, 
but this is how Arjen and Lori played them there.

Lori's solo has a lot more whammy bar usage than I've written down.
Make it a sort of habit to pre-dive into just about every note after
any sort of pause here. And use the wah to the fullest extent you can here.

Arjen's solo is played with a lot of finger vibrato with the slide. 
As a result, some notes are, for all practical purposes, "between" 
frets, so the intended pitches may be a bit different from 
what I've written down.


Solo 1 (Lori)

w/heavy wah

|--------------------------------------|
|--------------------------------------|
|--v1/4/7--7b8~~~---5/8/11--11b12~~~~--|
|--------------------------------------|
|--------------------------------------|
|--------------------------------------|

|--------------------------------------|
|--------------------------------------|
|--8-10b11~~~~~~----8b10~~~--8-6-5-6~~-|
|--------------------------------------|
|--------------------------------------|
|--------------------------------------|

|----------------------------------7-10--v11---|
|--------------------------------9-------------|
|----------------------------7h8---------------|
|--10---\6~~~~---3--3h4~~~~--------------------|
|----------------------------------------------|
|----------------------------------------------|

                                      +12
                                      ____
|--7---------------------------------/-----|
|----9---9b12~~~--9-8~~~~~~~~--7h8p7/~~~~~-|
|------8-----------------------------------|
|------------------------------------------|
|------------------------------------------|
|------------------------------------------|

|-----------------------18\9p6---------------------------|
|------------------------------9p8p6---------------------|
|------------------------------------9p6p5---------------|
|--8~~~~--4h8-8/10~~~----------------------8p7p5~~~------|
|--------------------------------------------------------|
|--------------------------------------------------------|


                                       +12
                                       ______
|-------------------------------------/--------|
|-------------------------7-9-9b11~~~/~~~~~~~--|
|-------4h6b8~~~~---6/8~~----------------------|
|--/4h6----------------------------------------|
|----------------------------------------------|
|----------------------------------------------|



Solo 2 (Arjen - slide)

|----------------------------------------------------------------------------------------|
|--4////12~~~---14/16\11~~~---11///13-13~~~///20---\16\\15~~~~--15\\\11---13---/14\\\13--|
|----------------------------------------------------------------------------------------|
|----------------------------------------------------------------------------------------|
|----------------------------------------------------------------------------------------|
|----------------------------------------------------------------------------------------|

|----------------------------------------------/19-19--18\\---------------20---\19---------|
|--/14\\11--13--14---16--18\\\11---9--9///16----------------15---////17------------19~~~~--|
|------------------------------------------------------------------------------------------|
|------------------------------------------------------------------------------------------|
|------------------------------------------------------------------------------------------|
|------------------------------------------------------------------------------------------|

|----------/23--22\\\18~~~~-19~~~~~~~19\\18------18///19\\\16\\\\\\\\--------------------|
|--19~~~~--------------------------------------------------------------------------------|
|----------------------------------------------------------------------------------------|
|----------------------------------------------------------------------------------------|
|----------------------------------------------------------------------------------------|
|----------------------------------------------------------------------------------------|

Tab key:

v = vibrato bar dive, usually a pre-dive before the note, releasing into the note.
~ = finger vibrato/bar vibrato
/ = slide
//// = lengthy (over the course of more than an eighth note) slide
b = bend
h = hammer on
p = pull off

  +12
  _______
 /         = Digitech Whammy Pedal notation. Depress rocker to the specified 
number of semitones (+12 = one octave)
/         
Suggest correction
What's this?
You can suggest a correction to this tab. Community and Mods will review your correction and vote to approve or reject it.
comments
We did not receive enough feedback on this tab! Please rate:
print report bad tab
1 2 3 4 5
1 comment total.
0 reply
ayreon77 16,485 wrote on April 8 2014, 03:44 pm

 
s
[-18\9--6---------------------]
[---------9-8-6---------------]
[---------------9-6---5-------]
[-----------------------8-7-b-]
[---------------------------5-]
[-----------------------------]


hopefully this will come out correct.

but this is what i can make out shes doin, but its pretty hard

guest
You may want to rate the tab now too:
select rating
Please do not post tabs as comments. Select "correction" instead!