Oops, an error
Loading. Please wait.

The Human Compulsion tab

version 1
version 1

Whole song

  • Likely played on a 7-string but transposed to a 6-string by request.

Interactive

by Ayreon
25 views 1 this week
2 commentsread comments
1 2 3 4 5
2 more votes to show rating
add to favorites
×
Save as Personal and add changes to this tab that will be seen only by you. Learn more ›
×
You can save this tab as Personal to edit and correct it or add notes. All changes will be seen only by you. Learn more »
launch autoscroll
font size
0
reset
how to read this tab
guitar tuner
edit
Autoscroll
slow
fast
+/-
esc
set tempo
stop
About this tab version
Likely played on a 7-string but transposed to a 6-string by request. Was this info helpful? Yes No
[Intro]
D|---------------------|
A|---------------------|
F|---------------------|
C|--2------------------|
G|--2------------------|
C|--2------------------|

D|-----4--|----4--|----4--|----4---|
A|---5---5|--5---5|--4---4|--4---4-|
F|--------|-------|-------|--------|
C|--------|-------|-------|--------| x2
G|--------|-------|-------|6-----6-|
C|-2-----2|4-----4|6-----6|--------|

[Verse]
D|-----4--|----4--|----4--|----4---|
A|---5---5|--5---5|--4---4|--4---4-|
F|--------|-------|-------|--------|
C|--------|-------|-------|--------| 
G|--------|-------|-------|6-----6-|
C|-2-----2|4-----4|6-----6|--------|

D|-----4--|----4--|----4--|-------|----7--|-----7---|----6--|----6---|
A|---5---5|--5---5|--4---4|----9--|--7---7|---7---7-|--7---7|--7---7-|
F|--------|-------|-------|--8---8|-------|---------|-------|--------|
C|--------|-------|-------|-------|-------|---------|-------|--------| 
G|--------|-------|-------|-------|-------|---------|6-----6|--------|
C|-2-----2|4-----4|6-----6|8-----8|9-----9|11-----11|-------|8-----8-|

D|-----7--|------7--|-----6-|-----6-|-----4-|-----4-|-----4-|----4---|
A|---7---7|---7---7-|--7---7|--7---7|--5---5|--5---5|--4---4|--4---4-|
F|--------|---------|-------|-------|-------|-------|-------|--------|
C|--------|---------|-------|-------|-------|-------|-------|--------|
G|--------|---------|6-----6|-------|-------|-------|-------|6-----6-|
C|-9-----9|11-----11|-------|4-----4|2-----2|4-----4|6-----6|--------|

D|-----4--|----4--|----4--|----4--|----7--|-----7---|----6--|----6---|
A|---5---5|--5---5|--4---4|--4---4|--7---7|---7---7-|--7---7|--7---7-|
F|--------|-------|-------|-------|-------|---------|-------|--------|
C|--------|-------|-------|-------|-------|---------|-------|--------| 
G|--------|-------|-------|-------|-------|---------|6-----6|--------|
C|-2-----2|4-----4|6-----6|8-----8|9-----9|11-----11|-------|8-----8-|

D|-----7--|-----7---|----6--|----6---|-----4--|----4--|----4--|----4---|
A|---7---7|---7---7-|--7---7|--7---7-|---5---5|--5---5|--4---4|--4---4-|
F|--------|---------|-------|--------|--------|-------|-------|--------|
C|--------|---------|-------|--------|--------|-------|-------|--------|
G|--------|---------|6-----6|--------|--------|-------|-------|6-----6-|
C|-9-----9|11-----11|-------|4-----4-|-2-----2|4-----4|6-----6|--------|
                                     ^ palm-mute rhythm enters here... 

D|-----4--|----4--|----4--|----4--|----7--|-----7---|----6--|----6---|
A|---5---5|--5---5|--4---4|--4---4|--7---7|---7---7-|--7---7|--7---7-|
F|--------|-------|-------|-------|-------|---------|-------|--------|
C|--------|-------|-------|-------|-------|---------|-------|4-----4-| 
G|--------|-------|-------|-------|-------|---------|6-----6|--------|
C|-2-----2|4-----4|6-----6|8-----8|9-----9|11-----11|----------------|
                                                        
D|-----4--|----4--|----4--|----4--|----4--|----4--|----4--|----4-----|      --|
A|---5---5|--5---5|--4---4|--4---4|--5---5|--5---5|--4---4|--4---4---|        |
F|--------|-------|-------|-------|-------|-------|-------|----------|        |
C|-2-----2|4-----4|6-----6|-------|2-----2|4-----4|6-----6|8-----8---|        |
G|--------|-------|-------|6-----6|-------|-------|-------|----------|        |
C|--------|-------|-------|-------|-------|-------|-------|----------|        |
                                                                              | x2
D|-----7--|-----7---|----6--|----6--|----7--|-----7---|----6--|-----6---|     |
A|---7---7|---7---7-|--7---7|--7---7|--7---7|---7---7-|--7---7|---7---7-|     |
F|--------|---------|8-----8|-------|-------|---------|8-----8|11-------|     |
C|-9-----9|11-----11|-------|8-----8|9-----9|11-----11|-------|---------|     |
G|--------|---------|-------|-------|-------|---------|-------|---------|     |
C|--------|---------|-------|-------|-------|---------|-------|---------|   --|


[Palm-mute rhythm]
 01:07

 PM------------------------------------------------------|
D|--------------------------------------------------------|
A|--------------------------------------------------------|
F|--------------------------------------------------------|
C|--------------------------------------------------------|
G|-2--2----2-2--4----4-4-4-4--6-6-6----6-6--1-1-1--1--1-1-|
C|-2--2----2-2--4----4-4-4-4--6-6-6----6-6--1-1-1--1--1-1-|

 PM------------------------------------------------------|
D|--------------------------------------------------------|
A|--------------------------------------------------------|
F|--------------------------------------------------------|
C|--------------------------------------------------------|
G|-2--2----2-2--4----4-4-4-4--6-6-6----6-6--8-8-8--8--8-8-|
C|-2--2----2-2--4----4-4-4-4--6-6-6----6-6--8-8-8--8--8-8-|

 PM----------------------------------------------------------------|
D|------------------------------------------------------------------|
A|------------------------------------------------------------------|
F|------------------------------------------------------------------|
C|------------------------------------------------------------------|
G|-9--9----9-9--11----11-11--11-11-13-13-13----13-13--8-8-8--8--8-8-|
C|-9--9----9-9--11----11-11--11-11-13-13-13----13-13--8-8-8--8--8-8-|

 PM-----------------------------------------------------------------------|
D|-------------------------------------------------------------------------|
A|-------------------------------------------------------------------------|
F|-------------------------------------------------------------------------|
C|-------------------------------------------------------------------------|
G|-9-9-9----9-9--11----11-11-11-11--13-13-13----13-13--16-16-16--16--16-16-|
C|-9-9-9----9-9--11----11-11-11-11--13-13-13----13-13--16-16-16--16--16-16-|

D|-------------------------------------------------------------------------|   --|
A|-------------------------------------------------------------------------|     |
F|-------------------------------------------------------------------------|     |
C|-9~~------11~~------13~~------8~~------9~~------11~~------13~~------15~~-|     |
G|-7~~------9~~-------11~~------6~~------7~~------9~~-------11~~------13~~-|     |
C|-------------------------------------------------------------------------|     |
                                                                                 | x2
D|-------------------------------------------------------------------------|     |
A|-------------------------------------------------------------------------|     |
F|-11~~-----13~~------15~~--------------11~~------13~~------15~~------18~~-|     |
C|-9~~------11~~------13~~------15~~----9~~-------11~~------13~~------16~~-|     |
G|------------------------------13~~---------------------------------------|     |
C|-------------------------------------------------------------------------|   --|


************************************

| PM   Palm-mute
| ~    Vibrato

************************************

            
            
Suggest correction
Creating personal tab
Creating personal tab
You can edit any tab online and save it as your Personal.

You can edit, replace or remove any tab part or add personal notes – all changes will be seen only by you.

Personal tabs can be accessed anytime from any device, even offline.
Learn more »
Give kudos to tab author, rate the tab!
1 2 3 4 5
comments
print report bad tab
2 comments total.
0 reply
bennettspink1 30 Jun 20, 2017 10:48 PM

Awesome work DropDeee! Helps a lot!

guest
You may want to rate the tab now too:
select rating
Wanna post a correction for this tab? Suggest correction