Oops, an error
Loading. Please wait.

The Shooting Company Of Captain Frans B Cocq Tab

version 1
version 1

Intro

Whole song

Interactive

13 views 1 this week
no commentswrite comment
1 2 3 4 5
2 more votes to show rating
add to favorites
launch autoscroll
font size
0
reset
how to read this tab
guitar tuner
Autoscroll
slow
fast
+/-
esc
set tempo
stop
Help us to improve Ultimate-Guitar.com Take our survey!
×
Author
Title: shooting company
Tempo: 125
Electric Guitar


[Intro]

e|----------------------------|----------------------------|
B|----------------------------|--------8-------------------|
G|--------9-----9--7-----7M---|--9--------7----------------|
D|--7-----------------10M-----|-----------------10-9M-10M--|
A|----------------------------|----------------------------|
E|----------------------------|----------------------------|


e|----------------------------|----------------------------|
B|----------------------------|----------------------------|
G|--7-----7~----------7--9----|--7--------------------7M---|
D|-----------------10M--------|--------10-7--------10M-----|
A|----------------------------|----------------------------|
E|----------------------------|----------------------------|


e|----------------------------|----------------------------|
B|----------------------------|--------8-------------------|
G|--------9-----9--7-----7M---|--9--------7----------------|
D|--7-----------------10M-----|-----------------10-9M-10M--|
A|----------------------------|----------------------------|
E|----------------------------|----------------------------|


e|----------------------------|----------------------||
B|----------------------------|----------------------||
G|--7-----7~----------7--9----|--7-------------------||
D|-----------------10M--------|--------10-7--------7-||
A|----------------------------|-----------------10---||
E|----------------------------|----------------------||


************************************

| ~  vibrato
| M  palm mute

************************************
Suggest correction
Give kudos to tab author, rate the tab!
1 2 3 4 5
comments
print report bad tab
guest
You may want to rate the tab now too:
select rating
Wanna post a correction for this tab? Suggest correction