Oops, an error
Loading. Please wait.

Warcry Tab

530 views 1 this week
no commentswrite comment
1 2 3 4 5
please rate
add to favorites
launch autoscroll
font size
0
reset
how to read this tab
guitar tuner
Autoscroll
slow
fast
+/-
esc
set tempo
stop
Help us to improve Ultimate-Guitar.com Take our survey!
×
Ayreon - Warcry
Transcribed by: Peter
gammaray26@hotmail.com

12/1-2002

*Please send me your corrections etc.*

I haven't transcribed the solo yet, but I'll se if I'll manage it...

4/4 Time, tempo ~ 120

E||------------------------------|-------------6----------|----------------------------|
B||--------------8--9--8---------|----------8-----8-------|------------8--9--8---------|
G||*---------10-----------10-----|-------8-----------8----|--------10-----------10-----|
D||*-----10-------------------10-|----8-----------------8-|----10-------------------10-|
A||---8--------------------------|-6----------------------|-8--------------------------|
E||------------------------------|------------------------|----------------------------|


                         2X
|-------------4------------||--------------1--------1--|--------------1--------1--|
|----------6-----6---------||-----------3-----3--------|-----------3-----3--------|
|-------6-----------6-----*||--------3-----------3-----|--------3-----------3-----|
|----6-----------------6--*||-----3--------------------|-----3--------------------|
|-4------------------------||--1-----------------------|--1-----------------------|
|--------------------------||--------------------------|--------------------------|



|-------------4--------4--|--------------4--------4--||----------------------8---------|
|----------6-----6--------|-----------6-----6--------||-----------------8-9-----11-9-8-|
|-------6-----------6-----|--------6-----------6-----||*---------10--10----------------|
|----6--------------------|-----6--------------------||*-----10------------------------|
|-4-----------------------|--4-----------------------||---8----------------------------|
|-------------------------|--------------------------||--------------------------------|


                                                     |---------(1:st ending)---|
                                                  2X |                         |
|----3----------3-------|-----------------6----------|-----1----------1--------||
|-6-----4----6-----4----|--------------8-----10-8-6--|--4-----2----4-----2-----||
|-----------------------|--------8--8----------------|------------------------*||
|-----------------------|-----8----------------------|------------------------*||
|-----------------------|--6-------------------------|-------------------------||
|-----------------------|----------------------------|-------------------------||


|-------(2:nd ending)-----|
|                         |
|-2-----------2-----------|--8--6--5--1--------------|--------------1--3--4--11--|
|----2-----2-----2-----2--|--------------1-----------|-----------2---------------|
|-------3-----------3-----|-----------------2--------|--------1------------------|
|-------------------------|--------------------3--1--|-----3---------------------|
|-------------------------|--------------------------|--4------------------------|
|-------------------------|--------------------------|---------------------------|



|-9--8-----9--8-----------|--------------6--------|--8--6--5--1--------------|
|-------9--------9--------|-----------7-----------|--------------1-----------|
|-------------------8--6--|--5-----6--------------|-----------------2--------|
|-------------------------|-----8-----------------|--------------------3--1--|
|-------------------------|-----------------------|--------------------------|
|-------------------------|-----------------------|--------------------------|



|-------------1--3--4--11--|--9--8-----9--8-----------|--------------6-----------|
|----------2---------------|--------9--------9--------|-----------7-----7--------|
|-------1------------------|--------------------8--6--|--5-----6-----------6-----|
|----3---------------------|--------------------------|-----8-----------------8--|
|-4------------------------|--------------------------|--------------------------|
|--------------------------|--------------------------|--------------------------|



|-------1-----------------|--------3-----------------|--------------1----------|
|----1-----1--------2-----|-----------4--------4--1--|-----------3-----3-------|
|----------------------1--|--------------------------|--------3-----------3----|
|-3--------------3--------|-----5-----------1--------|-----3-----------------3-|
|-------------4-----------|--6-----------3-----------|--1----------------------|
|-------------------------|--------------------------|-------------------------|



|------------------||
|------------------||
|------------------||
|------------------||
|-1----------------||
|------------------||
Suggest correction
What's this?
You can suggest a correction to this tab. Community and Mods will review your correction and vote to approve or reject it.
comments
We did not receive enough feedback on this tab! Please rate:
print report bad tab
1 2 3 4 5
guest
You may want to rate the tab now too:
select rating
Please do not post tabs as comments. Select "correction" instead!