Oops, an error
Loading. Please wait.

Free Wing tab

by AZ
1,723 views 39 this week
no commentswrite comment
1 2 3 4 5
x 3
add to favorites
×
Save as Personal and add changes to this tab that will be seen only by you. Learn more ›
×
You can save this tab as Personal to edit and correct it or add notes. All changes will be seen only by you. Learn more »
launch autoscroll
font size
0
reset
how to read this tab
guitar tuner
edit
Autoscroll
slow
fast
+/-
esc
set tempo
stop
Author
Difficulty
AZ - Free Wing
From: G.O.D II - Guitarists On Demand
Tabbed by: moist_seagull


[Intro]

e|-------------------------------------------------------------------------------|
B|----7--9--9b10--------9--7------9b10-------------------------------------------|
G|----------------------------9----------------7--9p7p6-------/9-----------------|
D|---------------------------------------------------------------------/9--\7----|
A|-------------------------------------------------------------------------------|
E|-------------------------------------------------------------------------------|

e|--------------------------------------------------------------------|
B|----7--9--9b10--------9--7-----9/10---12--14--/14--------h15--12----|
G|----------------------------9---------------------------------------|
D|--------------------------------------------------------------------|
A|--------------------------------------------------------------------|
E|--------------------------------------------------------------------|


[Verse 1]

e|----------------------------------------------------------------------------|
B|------------------------------7--9--9b10---9--------------------------------|
G|----------------9---/11\9----------------------/9---\7----------------------|
D|-------7--9/11------------------------------------------/9--\7---\6---/7----|
A|----7-----------------------------------------------------------------------|
E|----------------------------------------------------------------------------|

e|---------------------------------------------------------------------------|
B|---------------------------------------------------------------------------|
G|---------------------------------------------------------------------------|
D|-------7--9/11\9---\5-\4-------------------------4----6----/7-----/7--6----|
A|----7---------------------7---7/9-\7/9-------------------------4-----------|
E|---------------------------------------------------------------------------|

e|----------------------------------------------------------------------------|
B|-----------------------------------7--9/10-----/10--9-----------------------|
G|-------2--4--/6-----/6--4-------6-----------6----------------9------9/11----|
D|----4------------3----------------------------------------------11----------|
A|----------------------------------------------------------------------------|
E|----------------------------------------------------------------------------|

e|--------------------------------------------------------------------------|
B|--------------------------------------------------------------------------|
G|-------6--7----7-/9------/11-------------7--9--/11----11-/13-------/14----|
D|----9------------------7----------------------------------------11--------|
A|--------------------------------------------------------------------------|
E|--------------------------------------------------------------------------|

e|---------------------------------------------------------------|
B|-------------------------------------7-------7--9--/10---p9----|
G|----13h14p13-11-------9--/11------------/11--------------------|
D|------------------11-------------------------------------------|
A|---------------------------------------------------------------|
E|---------------------------------------------------------------|


[Chorus 1]

e|---------------------------------------------------------------|
B|----/10--12--9--/10--------/10--12--/14----15---\14--12--10----|
G|---------------------------------------------------------------|
D|---------------------------------------------------------------|
A|---------------------------------------------------------------|
E|---------------------------------------------------------------|

e|-------14-16-16b17--r16---14-14-----------------/14-16--/17------14--/17p16----|
B|----14----------------------------17-17-----------------------14---------------|
G|-------------------------------------------------------------------------------|
D|-------------------------------------------------------------------------------|
A|-------------------------------------------------------------------------------|
E|-------------------------------------------------------------------------------|

e|----16---h17p16p14---/14--16--17-----------------------------------------------------------------|
B|----------------------------------14--/17--------12-14-/15--14--h15p14p12-12------10-10h12p10----|
G|-------------------------------------------------------------------------------------------------|
D|-------------------------------------------------------------------------------------------------|
A|-------------------------------------------------------------------------------------------------|
E|-------------------------------------------------------------------------------------------------|

e|----------------------|
B|----9p7h9------/10----|
G|----------------------|
D|----------------------|
A|----------------------|
E|----------------------|


[Verse 2]

e|----------------------------------------------------------------------------|
B|------------------------------7--9--9b10---9---8----------8-----------------|
G|----------------9---/11-9----------------------9---7------7-----------------|
D|-------7--9/11---------------------------------7---7------9---7---6---/7----|
A|----7-----------------------------------------------------------------------|
E|----------------------------------------------------------------------------|

e|---------------------------------------------------------------------------|
B|---------------------------------------------------------------------------|
G|---------------------------------------------------------------------------|
D|-------7--9-11-9---\5-4--------------------------4----6----/7-----/7--6----|
A|----7---------------------7---7/9--7/9-------------------------4-----------|
E|---------------------------------------------------------------------------|

e|---------------------------------------------------------------------------------------|
B|-----------------------------------7--9/10-----9b10r9----------------------------------|
G|-------2--4--/6-----/6--4-------6-----------6----------------9------9/11---------------|
D|----4------------3----------------------------------------------11----------11----9----|
A|---------------------------------------------------------------------------------------|
E|---------------------------------------------------------------------------------------|

e|--------------------------------------------------------------------------|
B|--------------------------------------------------------------------------|
G|-------6--7----7-/9------/11-------------7--9--/11----11-/13-------/14----|
D|----9------------------7----------------------------------------11--------|
A|--------------------------------------------------------------------------|
E|--------------------------------------------------------------------------|

e|---------------------------------------------------------------|
B|-------------------------------------7-------7--9--/10---p9----|
G|----13h14p13-11-------9--/11------------/11--------------------|
D|------------------11-------------------------------------------|
A|---------------------------------------------------------------|
E|---------------------------------------------------------------|

e|---------------------------|
B|----9b10-----r9----9b10----|
G|----x----------------------|
D|---------------------------|
A|---------------------------|
E|---------------------------|


[Interlude]

F#m    A     E     D

F#m    A     E     D


[Solo]

e|----------------------------14-----------------17p12--------------------------------------------|
B|-----------------------/14------17b19r17--------------14----------------------------------------|
G|------------13/14----------------------------------------14-------------------------------------|
D|--------11--------------------------------------------------14\12------14/16--14----12p11-------|
A|----/9-------------------------------------------------------------12---------------------14----|
E|------------------------------------------------------------------------------------------------|

e|-------------------------------------------------14-16-17-16h17p16p14-------------------|
B|----------------------------------------14-15-17----------------------14----------------|
G|-------------------------------13-14-16----------------------------------14\13----------|
D|----------------------12-14-16-------------------------------------------------16-------|
A|-------------12-14-16-------------------------------------------------------------16----|
E|----12-14-16----------------------------------------------------------------------------|

e|-----------------------------17---------------------------------------------------------------------------|
B|----------14-------15--17-------15----15-------14h15p14-----------------------------10-12b14r12p10--12----|
G|-------------16--------------------14----14-------------14-----------------------11-----------------------|
D|----------------16--------------------------16-------------14--11b12--11----9-----------------------------|
A|-------16-------------------------------------------------------------------------------------------------|
E|----14----------------------------------------------------------------------------------------------------|
                                                                 A.H    A.H

e|----12------------------------16--17--16------17p16---------------------14-16-17-19----|
B|----15b17--------17b19----19------------------------19-17------14-15-17----------------|
G|---------------------------------------------------------------------------------------|
D|---------------------------------------------------------------------------------------|
A|---------------------------------------------------------------------------------------|
E|---------------------------------------------------------------------------------------|

e|------------16--21b22------21--19--17---------------17----17----------------------------------|
B|----17--18------------------------------------------17h19-17----------------------------------|
G|-------------------------------------------------18----------18-16h17p16p14-16----13b14r13----|
D|----------------------------------------------------------------------------------------------|
A|----------------------------------------------------------------------------------------------|
E|----------------------------------------------------------------------------------------------|


[Outro Chorus]

e|------------------------------------------------------------------------|
B|----/7---9---/10--12--9--/10--------/10--12--/14----15---\14--12--10----|
G|------------------------------------------------------------------------|
D|------------------------------------------------------------------------|
A|------------------------------------------------------------------------|
E|------------------------------------------------------------------------|

e|-------14-16-16b17--r16---14-16p14-----------------/14-16--/17------14--/17p16----|
B|----14------------------------------17--------------------------14----------------|
G|----------------------------------------------------------------------------------|
D|----------------------------------------------------------------------------------|
A|----------------------------------------------------------------------------------|
E|----------------------------------------------------------------------------------|

e|----21--------14--14--16--17-------------------------------------------------------------------------------|
B|---------17-------------------------14--/17--------12-14-/15--14--h15p14p12-12------10-10h12p10----9ph9----|
G|-----------------------------------------------------------------------------------------------------------|
D|-----------------------------------------------------------------------------------------------------------|
A|-----------------------------------------------------------------------------------------------------------|
E|-----------------------------------------------------------------------------------------------------------|

e|------------------------------------------------------------------------|
B|----/7---9---/10--12--9--/10--------/10--12--/14----15---\14--12--10----|
G|------------------------------------------------------------------------|
D|------------------------------------------------------------------------|
A|------------------------------------------------------------------------|
E|------------------------------------------------------------------------|

e|-------14-16-16b17--r16---14-16p14------------------14-16--/17---16---14----------|
B|----14------------------------------17------------------------------------17------|
G|----------------------------------------------------------------------------------|
D|----------------------------------------------------------------------------------|
A|----------------------------------------------------------------------------------|
E|----------------------------------------------------------------------------------|

e|--------------------------13--14--16--19----17-------17-19-21-/21----19--19------17h19p17p16-17p16----|
B|----17---15-14-12-----12------------------------------------------------------------------------------|
G|------------------------------------------------------------------------------------------------------|
D|------------------------------------------------------------------------------------------------------|
A|------------------------------------------------------------------------------------------------------|
E|------------------------------------------------------------------------------------------------------|


************************************
| x   Dead note
| h   Hammer-on
| p   Pull-off
| r   Release
| b   Bend
| /   Slide up
| \   Slide down
************************************ 

            
            
Suggest correction
Creating personal tab
Creating personal tab
You can edit any tab online and save it as your Personal.

You can edit, replace or remove any tab part or add personal notes – all changes will be seen only by you.

Personal tabs can be accessed anytime from any device, even offline.
Learn more »
Give kudos to tab author, rate the tab!
1 2 3 4 5
comments
print report bad tab
guest
You may want to rate the tab now too:
select rating
Wanna post a correction for this tab? Suggest correction