Oops, an error
Loading. Please wait.

Back On Board Bass Tab

34 views 1 this week
no commentswrite comment
1 2 3 4 5
3 more votes to show rating
add to favorites
launch autoscroll
font size
0
reset
guitar tuner
Autoscroll
slow
fast
+/-
esc
set tempo
stop
Help us to improve Ultimate-Guitar.com Take our survey!
×
Author
Difficulty
novice
[Intro]

G|----------------|----------------|----------|---------| (x2)
D|----------------|----------------|----------|---------|
A|----------------|----------------|----------|--5------|
E|--5-------------|--5-------------|--2----0--|------5--|


[Verse 1]

G|---------|-------------|---------|---------|
D|------7--|------7----\-|---------|------7--|
A|---------|-------------|---------|--5------|
E|--5------|--5----------|-2----0--|---------|


G|---------|-------------|---------|-------------|
D|------7--|------7----\-|---------|------7------|
A|---------|-------------|---------|--5----------|
E|--5------|--5----------|-2----0--|----------6--|


[Pre-Chorus]

G|-------------|-------------|-------------|----------------------------|
D|-------------|------9------|------6------|--------4--5--7--9--10--12\-|
A|------9------|--7-------7--|--4-------4--|--5--7----------------------|
E|--7-------7--|-------------|-------------|----------------------------|


[Chorus]

G|-------------|--------------|--------------|--------------|
D|-------------|--------------|--------------|--------------|
A|-----6-7-----|------6-7-----|------6-7-----|------6-7-----|
E|-5--------0--|--5--------0--|--5--------0--|--5--------0--|


G|--------------|--------------|--------------|--------------|
D|--------------|--------------|--------------|--------------|
A|------6-7-----|------6-7-----|------6-7-----|-----------4--|
E|--7--------0--|--7--------0--|--5--------0--|--5---5-7-----|

          
G|------------------|-----------------|------------------|-----------------|
D|--.-------.-------|-----------------|------------------|-----------------|
A|--5-5-x-5-5-5-x-5-|-.-------.-------|-.-------.--------|-.-------.---.---|
E|------------------|-4-4-x-4-4-4-x-4-|-4-4-x-4-4-4-x-4/-|-9-9-x-9-9-9-8-8-|


G|-------------|-------------|---------------|-------------|
D|-------------|-------------|---------------|-------------|
A|-------------|-7---7-7---7-|-8---8-10--12\-|-7---7-7---7-|
E|-7---7-7---7-|-------------|---------------|-------------|


[Verse 2]

G|--------|-------------|---------|---------| 
D|-----7--|------7----\-|---------|------7--|
A|--------|-------------|---------|--5------|
E|-5------|--5----------|-2----0--|---------|


G|--------|---------|----------|---------| 
D|-----7--|------7--|----------|------7--|
A|--------|---------|----------|--5------|
E|-5------|--5------|--2----0--|---------|


G|-----------|-----------|--------------|-------------|
D|-----------|-----------|--------------|-------------|
A|-----------|-----------|--------4---4-|-5---5-------|
E|--5---5-5--|--5---5-5--|--2---2-------|-------5---0-|


G|----------|-----------|--------------|-------------|
D|----------|-----------|--------------|-------------|
A|----------|-----------|--------4---4-|-5---5-------|
E|-5---5-5--|--5---5-5--|--2---2-------|-------5--6--|


[Pre-Chorus]

G|--------------|--------------|--------------|----------------------------|
D|--------------|--------9-----|--------6-----|--------4--5--7--9--10--12\-|
A|--------9-----|--7---7----7--|--4---4----4--|--5--7----------------------|
E|--7---7----7--|--------------|--------------|----------------------------|


[Chorus]

G|-------------|--------------|--------------|--------------|
D|-------------|--------------|--------------|--------------|
A|-----6-7-----|------6-7-----|------6-7-----|------6-7-----|
E|-5--------0--|--5--------0--|--5--------0--|--5--------0--|


G|--------------|--------------|--------------|--------------|
D|--------------|--------------|--------------|--------------|
A|------6-7-----|------6-7-----|------6-7-----|-----------4--|
E|--7--------0--|--7--------0--|--5--------0--|--5---5-7-----|

          
G|------------------|-----------------|------------------|-----------------|
D|--.-------.-------|-----------------|------------------|-----------------|
A|--5-5-x-5-5-5-x-5-|-.-------.-------|-.-------.--------|-.-------.---.---|
E|------------------|-4-4-x-4-4-4-x-4-|-4-4-x-4-4-4-x-4/-|-9-9-x-9-9-9-8-8-|


G|-------------|-------------|---------------|-------------|
D|-------------|-------------|---------------|-------------|
A|-------------|-7---7-7---7-|-8---8-10--12\-|-7---7-7-----|
E|-7---7-7---7-|-------------|---------------|-----------0-|


[Bridge]

G|------------|------------------|--------------|-------------|
D|------------|------------------|--------------|-2--0--------|
A|-------2-2--|------------------|-------2-2--2-|-------4--2--|
E|-2---2------|-0--0-2-0-3-0-4-0-|-2---2--------|-------------|


[Chorus]

G|-------------|--------------|--------------|--------------|
D|-------------|--------------|--------------|--------------|
A|-----6-7-----|------6-7-----|------6-7-----|------6-7-----|
E|-5--------0--|--5--------0--|--5--------0--|--5--------0--|


G|--------------|--------------|--------------|--------------|
D|--------------|--------------|--------------|--------------|
A|------6-7-----|------6-7-----|------6-7-----|------6-7-----|
E|--7--------0--|--7--------0--|--5--------0--|--5--------5--|

          
G|--------------|--------------|--------------|--------------|
D|------6-7-----|------6-7-----|------6-7-----|------6-7-----|
A|--5--------0--|--5--------0--|--5--------0--|--5--------0--|
E|--------------|--------------|--------------|--------------|


G|--------------|--------------|--------------|----------------|
D|------6-7-----|------6-7-----|------6-7-----|----------------|
A|--7--------0--|--7--------0--|--5--------0--|--5---5-0-2-3-4-|
E|--------------|--------------|--------------|----------------|


[Outro] 

G|-------------|--------------|--------------|--------------|
D|-----6-7-----|------6-7-----|------6-7-----|------6-7-----|
A|-5--------0--|--5--------0--|--5--------0--|--5--------0--|
E|-------------|--------------|--------------|--------------|


G|--------------|--------------|--------------|--------------|
D|------6-7-----|------6-7-----|------6-7-----|------6-7-----|
A|--7--------0--|--7--------0--|--5--------0--|--5--------0--|
E|--------------|--------------|--------------|--------------|


G|--------------|--------------|--------------|--------------|
D|------6-7-----|------6-7-----|------6-7-----|------6-7-----|
A|--5--------0--|--5--------0--|--5--------0--|--5--------0--|
E|--------------|--------------|--------------|--------------|


G|--------------|--------------|--------------|----------------|
D|------6-7-----|------6-7-----|------6-7-----|----------------|
A|--7--------0--|--7--------0--|--5--------0--|--5---5-0-2-3-4-|
E|--------------|--------------|--------------|----------------|


G|-------------|--------------|--------------|--------------|
D|-----6-7-----|------6-7-----|------6-7-----|------6-7-----|
A|-5--------0--|--5--------0--|--5--------0--|--5--------0--|
E|-------------|--------------|--------------|--------------|


G|--------------|--------------|--------------|--------------|
D|------6-7-----|------6-7-----|------6-7-----|------6-7-----|
A|--7--------0--|--7--------0--|--5--------0--|--5--------0--|
E|--------------|--------------|--------------|--------------|


G|--------------|--------------|--------------|--------------|
D|------6-7-----|------6-7-----|------6-7-----|------6-7-----|
A|--5--------0--|--5--------0--|--5--------0--|--5--------0--|
E|--------------|--------------|--------------|--------------|

                                                                     (fade out)
G|--------------|--------------|---------------|----------------|--------------|
D|------6-7-----|------6-7-----|-----7-6-7-----|-----7-6-7-6-7--|------6-7-----|
A|--7--------0--|--7--------0--|--5---------0--|--5-------------|--5--------0--|
E|--------------|--------------|---------------|----------------|--------------|



*************************

| / : slide up
| \ : slide down
| x : dead note
| . : staccato

*************************

in regular sequence!
Suggest correction
Give kudos to tab author, rate the tab!
1 2 3 4 5
comments
print report bad tab
guest
You may want to rate the tab now too:
select rating
Wanna post a correction for this tab? Suggest correction