Oops, an error
Loading. Please wait.

Lost Outside The Tunnel Bass Tab

19 views 1 this week
no commentswrite comment
1 2 3 4 5
3 more votes to show rating
add to favorites
launch autoscroll
font size
0
reset
guitar tuner
Autoscroll
slow
fast
+/-
esc
set tempo
stop
Help us to improve Ultimate-Guitar.com Take our survey!
×
Author
Difficulty
novice
[Intro]

G|---------------|---------------|---------------|---------------| (x4)
D|-----7------7--|-----7------7--|-----8------8--|-----8------8--|
A|--5----5--5----|--5----5--5----|--6----6--6----|--7----7--7----|
E|---------------|---------------|---------------|---------------|


[Verse 1]

G|---------------|---------------|---------------|---------------| (x3) 
D|-----7------7--|-----7------7--|-----8------8--|-------5----5--|
A|--5----5--5----|--5----5--5----|--6----6--6----|--4--7----7----|
E|---------------|---------------|---------------|---------------|


G|---------------|---------------|--------------|-------------|
D|-----7------7--|-----7------7--|--------------|-------------|
A|--5----5--5----|--4----4--4----|--3---3--3--3-|-2---2-2--0--|
E|---------------|---------------|--------------|-------------|


[Chorus]

G|------------|------------|--------------|-------------|
D|--5---5-/9--|--2---2-/9--|--------------|-0---0-2--4--|
A|------------|------------|--2---2-4---4-|-------------|
E|------------|------------|--------------|-------------|


G|------------|------------|--------------|-------------|
D|--5---5-/9--|--2---2-/9--|--------------|-0---0-4--3--|
A|------------|------------|--2---2-4---4-|-------------|
E|------------|------------|--------------|-------------|


G|------------|-------------|---------------|--------------------|
D|--2---2-/9--|--4---4-/11--|--5-----5-5----|-5-----5--4---------|
A|------------|-------------|------5------5-|-----5-------8---\--|
E|------------|-------------|---------------|--------------------|


[Verse 2]

G|---------------|---------------|---------------|---------------| (x3) 
D|-----7------7--|-----7------7--|-----8------8--|-------5----5--|
A|--5----5--5----|--5----5--5----|--6----6--6----|--4--7----7----|
E|---------------|---------------|---------------|---------------|


G|---------------|---------------|--------------|-------------|
D|-----7------7--|-----7------7--|--------------|-------------|
A|--5----5--5----|--4----4--4----|--3---3--3--3-|-2---2-2--0--|
E|---------------|---------------|--------------|-------------|


[Chorus]

G|------------|------------|--------------|-------------|
D|--5---5-/9--|--2---2-/9--|--------------|-0---0-2--4--|
A|------------|------------|--2---2-4---4-|-------------|
E|------------|------------|--------------|-------------|


G|------------|------------|--------------|-------------|
D|--5---5-/9--|--2---2-/9--|--------------|-0---0-4--3--|
A|------------|------------|--2---2-4---4-|-------------|
E|------------|------------|--------------|-------------|


G|------------|-------------|---------------|-------------|
D|--2---2-/9--|--4---4-/11--|--5-----5-5----|-5-----5--4--|
A|------------|-------------|------5------5-|-----5-------|
E|------------|-------------|---------------|-------------|


[Instrumental]

G|-----------------|-----------------|-----------------|-----------------| (x4)
D|-3-3-3-3-3-3-3-3-|-----------------|-----------------|-----------------|
A|-----------------|-4-4-4-4-4-4-4-4-|-5-5-5-5-3-3-3-3-|---------0-0-3-3-|
E|-----------------|-----------------|-----------------|-6-6-6-6---------|


[Interlude]

G|-----------|--6-6--6-6--|--7--5--------------------|
D|-3-3--3-3--|------------|--------8--7--5-----------|
A|-----------|------------|-----------------8--7--6--|
E|-----------|------------|--------------------------|


[Verse 3]

G|---------------|---------------|---------------|---------------| (x3) 
D|-----7------7--|-----7------7--|-----8------8--|-------5----5--|
A|--5----5--5----|--5----5--5----|--6----6--6----|--4--7----7----|
E|---------------|---------------|---------------|---------------|


G|---------------|---------------|--------------|-------------|
D|-----7------7--|-----7------7--|--------------|-------------|
A|--5----5--5----|--4----4--4----|--3---3--3--3-|-2---2-2--0--|
E|---------------|---------------|--------------|-------------|


[Chorus]

G|------------|------------|--------------|-------------|
D|--5---5-/9--|--2---2-/9--|--------------|-0---0-2--4--|
A|------------|------------|--2---2-4---4-|-------------|
E|------------|------------|--------------|-------------|


G|------------|------------|--------------|-------------|
D|--5---5-/9--|--2---2-/9--|--------------|-0---0-4--3--|
A|------------|------------|--2---2-4---4-|-------------|
E|------------|------------|--------------|-------------|


G|------------|-------------|---------------|---------------|
D|--2---2-/9--|--4---4-/11--|--5-----5-5----|-5-----5-5-5-5-|
A|------------|-------------|------5------5-|-----5---------|
E|------------|-------------|---------------|---------------|


[Outro] 

G|---------|----------|----------|-----------| (x2)
D|------5--|--7-------|--8----7--|-----------|
A|-5-------|-------5--|----------|--8--7--5--|
E|---------|----------|----------|-----------|



*************************

| / : slide up
| \ : slide down

*************************

in regular sequence!
Suggest correction
Give kudos to tab author, rate the tab!
1 2 3 4 5
comments
print report bad tab
guest
You may want to rate the tab now too:
select rating
Wanna post a correction for this tab? Suggest correction