Oops, an error
Loading. Please wait.

The Bugle Sounds Again Bass Tab

10 views 10 this week
no commentswrite comment
1 2 3 4 5
3 more votes to show rating
add to favorites
launch autoscroll
font size
0
reset
guitar tuner
Autoscroll
slow
fast
+/-
esc
set tempo
stop
Help us to improve Ultimate-Guitar.com Take our survey!
×
Author
Difficulty
novice
Bass Start - 00:47


[Intro], [Verse 1] : No Bass Guitar

[Chorus]
G|19\|--------------|--------------|-----------|-----------|
D|---|--------------|--------------|---------6-|7---7------|
A|---|8---8-10--12-\|8---8-10--11-\|7---7-9----|------7----|
E|---|--------------|--------------|-----------|---------5-|

G|-----------|-----------|------------|----------------|
D|-----------|-----------|------------|----------------|
A|5---5-5---5|------5----|3---3-3-----|----------------|
E|-----------|3---3----3-|---------5-4|3---------------|

[Verse 2]
G|-----------|-----------|-----------|-------------|
D|-----------|---------5-|-----------|-------------|
A|-----------|-----------|3---3-3----|3---3-3-3----|
E|1---1-1---/|3---3-3----|----------3|----------5-\|

G|------------|-----------|-----------|-----------|
D|------------|-----------|-----------|---------2-|
A|------------|-----------|3---3-3----|3---3-5----|
E|1---1-1---1/|3---3-3---3|----------3|-----------|

G|------------|------------|---------------|-----------|
D|3---3-5--7-\|3---3-5--6-\|2---2-3-/5-5-/7|7---7------|
A|------------|------------|---------------|------7----|
E|------------|------------|---------------|---------5-|

G|-----------|-----------|-----------|-------------|
D|-----------|-----------|-----------|------2-3-4-5|
A|5---5-5---5|------5----|3---3-3----|3---3--------|
E|-----------|3---3----3-|----------3|-------------|

[Bridge]
G|---5-3-----|----------------|---5-2-----|----------------|
D|---------5-|----------------|3--------5-|3---------------|
A|3----------|3--------------3|-----------|----------------|
E|-----------|----------------|-----------|----------------|

G|---7-5------|----------------|--------------------|
D|---------7-\|4---------------|5----6----7----7--6-|
A|5-----------|----------------|--------------------|
E|------------|----------------|--------------------|

[Instrumental]
G|12---9---7-|------------|-----------|---------------11|
D|-----------|/11---9---7-|--------11-|9------7-9-/12---|
A|-----------|------------|9---8------|---8-9-----------|
E|-----------|------------|-----------|-----------------|

G|12---9---7-|------------|----------|-----------|
D|-----------|/11---9---7-|--------4-|---------4-|
A|-----------|------------|5---7-----|5---5-7----|
E|-----------|------------|----------|-----------|

[Chorus]
G|------------|------------|---------3-|4---4------|
D|5---5-7--9-\|5---5-7--8-\|4---4-6----|------4----|
A|------------|------------|-----------|---------2-|
E|------------|------------|-----------|-----------|

G|------------|-----------|-----------|------------|---------------|
D|2---2-2--4-2|------2----|-----------|------------|---------------|
A|------------|0---0----0-|5---5-5---5|6---6-7--9-\|7---7-7--------|
E|------------|-----------|-----------|------------|---------7-6-5-|

[Outro]
G|-----------|------------|-----------|-----------|---------------|
D|-----------|------------|-----------|-----------|---------------|
A|5---5-5---5|6---6-7--9-\|7---7-7---7|------7----|5--------------|
E|-----------|------------|-----------|5---5----5-|---------------|



***************************

| / slide up
| \ slide down

***************************
Suggest correction
Give kudos to tab author, rate the tab!
1 2 3 4 5
comments
print report bad tab
guest
You may want to rate the tab now too:
select rating
Wanna post a correction for this tab? Suggest correction