Oops, an error
Loading. Please wait.

Stick Around tab

version 1
version 1

Whole song

by Azure
11,181 views 3 this week
no commentswrite comment
1 2 3 4 5
3 more votes to show rating
add to favorites
×
Save as Personal and add changes to this tab that will be seen only by you. Learn more ›
×
You can save this tab as Personal to edit and correct it or add notes. All changes will be seen only by you. Learn more »
launch autoscroll
font size
0
reset
how to read this tab
guitar tuner
edit
Autoscroll
slow
fast
+/-
esc
set tempo
stop
Author
Artist: Azure
Song: Stick Around

Tabbed by: philip francia
Email: philiptf_11@yahoo.com

Legend: h= hammer on
        \= slide back from higher fret to lower fret



 Intro: 
e|--2h4-----------2--------2h4--2-0-|
B|------2h4---0-2------2---2h4--2-0-|
G|----------------------1-----------|
D|-------------------1----------2-0-|
A|----------2-----------------------|
E|----------------------------------|
                                                                                   

 1st stanza:
e|-------2-----2—2h4----0-----0----|--------2------2------0------0-----|
B|---0-2-----2-2-2h4---0-0----0-0--|----0-2------2-2----0-0----0-0-t---|
G|---------------------------------|-------------------------------a---|
D|---------------------------------|-------------------------------p---|
A|-2-------1---------0-------------|--2--------1-------0---------------|
E|-------------------------4-------|--------------------------4--------|
 

 Ref:
e|---0----0---0--------0-0-------|
B|---0-t--0---0-t------0-0-t-----|
G|-----a--------a----------a-----|
D|-----p--------p----------p-----|
A|-4------4--------6---6---------|
E|-------------------------------|


e|-----0-----0---0-------0-----0----|
B|-----0-t---0---0-t-----0-t---0----|
G|-------a---------a-------a--------|
D|-------p---------p-------p--------|
A|---4-------4---------6-------6----|
E|--------------------------------\-|
(Slide from higher fret to lower fret)
                                                              

  Chorus:
e|-----2-----2-2-------2----2-2------0----0-0-------0-----0-0-------|
B|-----2-t---2-2--t----2-t--2-2-t----0-t--0-0-t-----0-t---0-0-t-----|
G|-------a--------a------a------a------a------a-------a-------a-----|
D|-------p--------p------p------p------p------p-------p-------p-----|
A|--2--------2-------1------1------0------0-------------------------|
E|------------------------------------------------4-------4---------|






e|----2-----2-2------2----2-2------0----0-0------0------0-0---------|
B|----2-t---2-2-t----2-t--2-2-t----0-t--0-0-t----0-t----0-0-t-------|
G|------a-------a------a------a------a------a------a--------a-------|
D|------p-------p------p------p------p------p------p--------p-------|
A|--2-------2------1------1------0------0---------------------------|
E|---------------------------------------------4------4-------------|





e|----0----0-0------0----0-0--------0------0-0-------0-----0-0------|
B|----0-t--0-0-t----0-t--0-0-t------0-t----0-0-t-----0-t---0-0-t----|
G|------a------a------a------a--------a--------a-------a-------a----|
D|------p------p------p------p--------p--------p-------p-------p----|
A|--4------4------6------6------6--4------4--------6------6---------|
E|------------------------------------------------------------------|



                            2nd stanza:
e|--2h4------|----2-----2-2------2-----2-2-------0-------0-0--------|
B|------2h4--|----2-t---2-2-t----2-t---2-2-t-----0-t-----0-0-t------|
G|-----------|------a-------a------a-------a-------a---------a------|
D|-----------|------p-------p------p-------p-------p---------p------|
A|-----------|--2-------2-------1------1-------0---------0----------|
E|-----------|------------------------------------------------------|



e|----0-----0--|----2-----2-2-------2------2-2-------0-----0-0-------|
B|----0-t---0--|----2-t---2-2-t-----2-t----2-2-t-----0-t---0-0-t-----|
G|------a------|------a-------a-------a--------a-------a-------a-----|
D|------p------|------p-------p-------p--------p-------p-------p-----|
A|-------------|--2-------2--------1-------1-------0-------0---------|
E|--4-------4--|-----------------------------------------------------|



e|----0-----0----|
B|----0-t---0----|
G|------a--------|  (repeat chorus)...
D|------p--------|  (then do the intro)...
A|---------------|
E|--4-------4----|


e|----0-----0-0-------0-----0-0-------0-----0-0------0-----0-0-------|
B|----0-t---0-0-t-----0-t---0-0-t-----0-t---0-0-t----0-t---0-0-t-----|
G|------a-------a-------a-------a-------a-------a------a-------a-----|
D|------p-------p-------p-------p-------p-------p------p-------p-----|
A|--4-------4-------6-------6-------4-------4------6-------6---------|
E|-------------------------------------------------------------------|

            
            
Suggest correction
Creating personal tab
Creating personal tab
You can edit any tab online and save it as your Personal.

You can edit, replace or remove any tab part or add personal notes – all changes will be seen only by you.

Personal tabs can be accessed anytime from any device, even offline.
Learn more »
Give kudos to tab author, rate the tab!
1 2 3 4 5
comments
print report bad tab
guest
You may want to rate the tab now too:
select rating
Wanna post a correction for this tab? Suggest correction