Oops, an error
Loading. Please wait.

Bump Bump Bump Tab

version 1
version 1

Whole song

Interactive

by B2K
6,533 views 1 this week
3 commentsread comments
1 2 3 4 5
x 4
add to favorites
launch autoscroll
font size
0
reset
how to read this tab
guitar tuner
Autoscroll
slow
fast
+/-
esc
set tempo
stop
Help us to improve Ultimate-Guitar.com Take our survey!
×
-------------------------------------------------------------------------------
Bump, Bump, Bump – B2K
-------------------------------------------------------------------------------

Tabbed by: string_liznerz
Email:stringlizner@aol.com
 
Intro

e|-4---6-7-6--6-7-6--3-5---4---6-7-6--6-7-6--3-5-----------------------------|
B|-4-----------------------4-------------------------------------------------|
G|-4-----------------------4-------------------------------------------------|
D|-6-----------------------6-------------------------------------------------|
A|-6-----------------------6-------------------------------------------------|
E|-4-----------------------4-------------------------------------------------|

e|-4-----------------------4--------------------------x----------------------|
B|-5---4-5-4--4-5-4--------5---4-5-4--4-5-4-----------8----------------------|
G|-6-----------------4-6---6-----------------4--------8----------------------|
D|-6-----------------------6--------------------------8----------------------|
A|-4-----------------------4--------------------------6----------------------|
E|---------------------------------------------------------------------------|

Verse

e|-4--6-7-6--3-5---4--6-7-6--3-5---4---------------4-------------x-----------|
B|-4---------------4---------------5--4-5-4--------5--4-5-4------8-----------|
G|-4---------------4---------------6---------4-6---6--------4----8-----------|
D|-6---------------6---------------6---------------6-------------8-----------|
A|-6---------------6---------------4---------------4-------------6-----------|
E|-4---------------4---------------------------------------------------------|

Chorus

e|-4--6-7-6--3-5---4--6-7-6--3-5---4---------------4-------------x-----------|
B|-4---------------4---------------5--4-5-4--------5--4-5-4------8-----------|
G|-4---------------4---------------6---------4-6---6--------4----8-----------|
D|-6---------------6---------------6---------------6-------------8-----------|
A|-6---------------6---------------4---------------4-------------6-----------|
E|-4---------------4---------------------------------------------------------|
Suggest correction
comments
print report bad tab
3 comments total.
0 reply
thenextbigthing 10 Jul 05, 2003 12:00 AM

e|-4---6-7-6--6-7-6--3-4---4---6-7-6--6-7-6--3-4-----------------------------|
B|-4-----------------------4-------------------------------------------------|
G|-4-----------------------4-------------------------------------------------|
D|-6-----------------------6-------------------------------------------------|
A|-6-----------------------6-------------------------------------------------|
E|-4-----------------------4-------------------------------------------------|
Verse

e|-4--6-7-6--3-4---4--6-7-6--3-4---4---------------4-------------x-----------|
B|-4---------------4---------------5--4-5-4--------5--4-5-4------8-----------|
G|-4---------------4---------------6---------4-6---6--------4----8-----------|
D|-6---------------6---------------6---------------6-------------8-----------|
A|-6---------------6---------------4---------------4-------------6-----------|
E|-4---------------4---------------------------------------------------------|

Chorus

e|-4--6-7-6--3-4---4--6-7-6--3-5---4---------------4-------------x-----------|
B|-4---------------4---------------5--4-5-4--------5--4-5-4------8-----------|
G|-4---------------4---------------6---------4-6---6--------4----8-----------|
D|-6---------------6---------------6---------------6-------------8-----------|
A|-6---------------6---------------4---------------4-------------6-----------|
E|-4---------------4---------------------------------------------------------|

0 reply
thm_05 30 Jan 25, 2004 12:00 AM

huh?

0 reply
thomas96 10 Aug 09, 2009 04:28 AM

is ur guitar outa tune cuz this sucks

guest
You may want to rate the tab now too:
select rating
Wanna post a correction for this tab? Suggest correction