Oops, an error
Loading. Please wait.

Riding With The King tab

62,592 views 66 this week
1 commentread comment
1 2 3 4 5
x 8
add to favorites
×
Save as Personal and add changes to this tab that will be seen only by you. Learn more ›
×
You can save this tab as Personal to edit and correct it or add notes. All changes will be seen only by you. Learn more »
launch autoscroll
font size
0
reset
how to read this tab
guitar tuner
edit
Autoscroll
slow
fast
+/-
esc
set tempo
stop
Author
(Gtr 1) (E A D G B E) - 'Eric Clapton light dist'
(Gtr 2) (E A D G B E) - 'B.B. King clean w/sustain'
(Gtr 3) (E A D G B E) - 'Rhythm w/light dist'

[Intro]
   Q=102
  4/4
  (Gtr 1)
                                            ~~~
   E    W                   H       Q   a E E
e|---|-----------------|-------------------9-|
B|---|-----------------|---------------------|
G|---|-----------------|---------------7s9---|
D|---|-----------------|---------------------|
A|---|-----------------|---------------------|
E|---|-----------------|---------------------|
 
(Gtr 3)
                                      ~
 | E    q  e E a q  e E   a e E e E E Q     E
e|---|-----------------|---------------------|
B|---|-----------------|---------------------|
G|---|-----------------|-------------2-------|
D|---|-2--4---4s5--4---|-4s5---4---5---------|
A|-0-|------0--------0-|-----0---0---------0-|
E|---|-----------------|---------------------|

  ~~~~~~~~~~~~~~~~~~~~~~~~~~~
   +W                    +H        Q  a  E  E
e|-(9)---------------|---(9)---------------11----|
B|-------------------|---------------------------|
G|-------------------|----------------9s11-------|
D|-------------------|---------------------------|
A|-------------------|---------------------------|
E|-------------------|---------------------------|
 
 |  q   e E a q  e E   a  e  E e E Q     E  e
e|-------------------|---------------------------|
B|-------------------|---------------------------|
G|-------------------|----------------------4----|
D|--2---4---4s5--4---|-4s=5----4---5--------4----|
A|--------0--------0-|-------0---0-------0--2----|
E|-------------------|---------------------------|

(Gtr 1)
     ~~~~
    +W                         W
e|-(11)----------------------|---------------------------------|
B|---------------------------|---------------------------------|
G|---------------------------|---------------------------------|
D|---------------------------|---------------------------------|
A|---------------------------|---------------------------------|
E|---------------------------|---------------------------------|
 
(Gtr 2)
 |        ~~
 |   Q    Q    E     E    Q    H       E  E      +E       +e
e|---------------------------|-----------12b13==(12)b14==(12)r-|
B|-------12---14b15-14b15----|--------15-----------------------|
G|---------------------------|---------------------------------|
D|---------------------------|---------------------------------|
A|---------------------------|---------------------------------|
E|---------------------------|---------------------------------|
 
(Gtr 3)
 |  +Q    E E  Q          Q    E E Q   Q          E        E
e|---------------------------|---------------------------------|
B|---------------------------|-----4--------------4--------4---|
G|--(4)--------2----------4--|---4-4---2----------4--------4---|
D|--(4)---6-4--4----------4--|---4-4---4----------4--------4---|
A|--(2)---2-2--2-------------|---2-2---2-----------------------|
E|---------------------------|---------------------------------|

                                       ~~~~~
    W                          E    E  E    E a E  E     a   E   E
e|--------------------------|-------------------------------------------|
B|--------------------------|-------------------------------------------|
G|--------------------------|--9b11-9--7--------------------------------|
D|--------------------------|---------------9---------------------------|
A|--------------------------|-----------------9s7--5-----7s==9---9------|
E|--------------------------|-------------------------------------------|
 
 |  ~~
 |  H      E.      +S   q      Q       Q        E  E        +E   S  S
e|--------------------------|---------14b16-----------------------------|
B|-12-----14b15r==(14)------|---------------------14pb15r==(14)p12------|
G|---------------------13---|--------------------------------------13---|
D|--------------------------|-------------------------------------------|
A|--------------------------|-------------------------------------------|
E|--------------------------|-------------------------------------------|
 
 |  Q  q   E    E       E e   +E    E  q        Q            E   E
e|--------------------------|-------------------------------------------|
B|-----4--------4-----------|-------------------------------------------|
G|--2--4--------4---------2-|-(2)---2--2--------2------------2---2------|
D|--4--4--------4---------4-|-(4)---4--4--------4------------4---4------|
A|--2-----------2---------2-|-(2)---2--2-------------------------2------|
E|--------------------------|-------------------------------------------|

[Verse 1]
    Q   +Q    H          W                        W
e|--------------------|-----------------------|------------------|
B|--------------------|-----------------------|------------------|
G|--------------------|-----------------------|------------------|
D|--9---(9)\----------|-----------------------|------------------|
A|--------------------|-----------------------|------------------|
E|--------------------|-----------------------|------------------|
 
 |  ~~~                                                ~~     ~~
 |  W                    H      E  E  E  E       +q    Q  Q   Q
e|--------------------|-----------------12b14r|=(12)-------------|
B|-12-----------------|-----------12-15-------|-------12-----12--|
G|--------------------|-----------------------|------------------|
D|--------------------|-----------------------|------------------|
A|--------------------|-----------------------|------------------|
E|--------------------|-----------------------|------------------|
 
 | +Q    q    E E E E   +Q   q  Q     E  E        Q    q  Q   q
e|--------------------|-----------------------|------------------|
B|-------4------4-----|------4--------4-------|--------4------4--|
G|-(2)---4------4---4-|-(4)--4--------4-------|---2----4--2---4--|
D|-(4)---4------4---4-|-(4)--4-----------4----|---4----4--4---4--|
A|-(2)--------------2-|-(2)--------------2----|---2-----------2--|
E|--------------------|-----------------------|------------------|
 |-Rhy Fig 1

  2/4       4/4
  (Gtr 2)
                                            ~~~
   W         E  E      +Q     +E    Q       E
e|---------|----------------------------------|
B|---------|---15b17==(15)---(15)r-15b16---12-|
G|---------|----------------------------------|
D|---------|----------------------------------|
A|---------|----------------------------------|
E|---------|----------------------------------|
 
(Gtr 3)
 |                                          ~~~
 | E E E E   Q          E  E   E    E    E  E
e|---------|----------------------------------|
B|---------|----------------------------------|
G|-2-2-2-2-|----------------------------------|
D|-4-4-4-4-|----------------------------------|
A|-2-2-2-2-|------------4--2-------------2--5-|
E|---------|-0----------0--0---3----4---------|

  ~~~~~~                                    ~~
    +E   E   Q   Q   e     E    E      +E   Q  H
e|------------------------12-|-12pb14r(12)-------------|
B|-(12)-14----------15b16----|-------------12----------|
G|---------------------------|-------------------------|
D|---------------------------|-------------------------|
A|---------------------------|-------------------------|
E|---------------------------|-------------------------|

 |~~~~~~         ~
 |  +E   E a E E Q   E     E    Q           q  E E Q
e|---------------------------|-------------------------|
B|---------------------------|--------------4----------|
G|---------------------------|--2-----------4----4-2---|
D|-------2-------------------|--4-----------4----4-4---|
A|--(5)----2h4---2---4-----2-|-(2)---------------------|
E|-------------0-------------|-------------------------|

                                   ~~~
   Q     E      +E   E   E      E  E
e|------14pb17r(14)-12---------------|
B|----------------------15b15.5---12-|
G|-----------------------------------|
D|-----------------------------------|
A|-----------------------------------|
E|-----------------------------------|
 
 | q  a  E       E  +Q          E  E
e|-----------------------------------|
B|-4----------------------------4--x-|
G|-4-------------2--(2)---------4--x-|
D|-4--2h=4----------------------4--x-|
A|-------2---------------------------|
E|-----------------------------------|

                         2/4     4/4
  ~~~~~~
    +Q    +Q     H        W       W
e|----------------------|-------|--------------------|
B|-(12)--(12)\----------|-------|--------------------|
G|----------------------|-------|--------------------|
D|----------------------|-------|--------------------|
A|----------------------|-------|--------------------|
E|----------------------|-------|--------------------|
 
 |   Q     E   E E Q.     Q  Q    Q  a Q  E E a E E
e|----------------------|-------|--------------------|
B|----------------------|-------|--------------------|
G|---------------2-4----|-2--2--|----0h1-------------|
D|---4-----4---6-4-4----|-4--4--|----0h2-------------|
A|---2-----2------------|-2--2--|----0h2------2h4----|
E|----------------------|-------|-0-------0-0-----0--|

(Gtr 1)
     W
e|--------------------------------------|
B|--------------------------------------|
G|--------------------------------------|
D|--------------------------------------|
A|--------------------------------------|
E|--------------------------------------|
 
(Gtr 2)
 |                         ~~~        ~~~
 |   E   E  E  E      +S   E.      E  E
e|-----/19\---12pb14r(12)p10------------|
B|--------------------------------10-12-|
G|--------------------------------------|
D|--------------------------------------|
A|--------------------------------------|
E|--------------------------------------|
 
(Gtr 3)
 | a E   E  E  E       E      E a  E  E
e|--------------------------------------|
B|--------------------------------------|
G|--------------------------------------|
D|------------------------------------4-|
A|-4s5------4----------2--------2h=4--2-|
E|-------0-----4--------------4---------|

[Chorus]
                                                  ~
     W                     H         Q    E  E    W
e|-----------------------|---------------------|-7-------------|
B|-----------------------|---------------------|---------------|
G|-----------------------|------------------/7-|---------------|
D|-----------------------|---------------------|---------------|
A|-----------------------|---------------------|---------------|
E|-----------------------|---------------------|---------------|
 
 |~~~~~~
 |  +Q     q       H       W                      W
e|--------10b10.5--------|---------------------|---------------|
B|-(12)------------------|---------------------|---------------|
G|-----------------------|---------------------|---------------|
D|-----------------------|---------------------|---------------|
A|-----------------------|---------------------|---------------|
E|-----------------------|---------------------|---------------|
 
 |  +E  E  Q       Q  q    E E a Q  +E  E E  E    Q  q  E E E E
e|-----------------------|---------------------|---------------|
B|--------------------4--|-----5p4--(4)--------|---------------|
G|------4--4-------4--4--|---4---4--(4)-2-2----|---------------|
D|--(4)-4--4-------4--4--|---4---4--(4)-2-2----|---------------|
A|--(2)------------2-----|-------2--(2)--------|-5--5--5-5-7---|
E|-----------------------|-------------------3-|-3--3--3-3-3-3-|
                                end Rhy Fig 1-|-Rhy Fig 2

   +H          E E  E    E   +W
e|-(7)---------7-6--5----4-|-(4)---------|
B|-------------------------|-------------|
G|-------------7-6--5----4-|-(4)---------|
D|-------------------------|-------------|
A|-------------------------|-------------|
E|-------------------------|-------------|

 |                            ~~~
 |  Q    H          Q         H.      Q
e|-------------------------|-------------|
B|------15b17------15b16---|-12----------|
G|-------------------------|-------------|
D|-------------------------|-------------|
A|-------------------------|-------------|
E|-------------------------|-------------|
 
 |  Q    Q     E E  E    E   +W
e|-------------------------|-------------|
B|-------------------------|-------------|
G|-----------------------1-|-(1)---------|
D|-------------5-4--3----2-|-(2)---------|
A|--5----7-----5-4--3----2-|-(2)---------|
E|--3----3-----3-2--1----0-|-(0)---------|

    H              E  E       E   E     W
e|-----------------4----------4-------|-7----------------|
B|------------------------------------|------------------|
G|-----------------4--4----------/7---|-7----------------|
D|------------------------------------|------------------|
A|------------------------------------|------------------|
E|------------------------------------|------------------|
 
 |  E   Q.         E  Q          +E     H    E.  S  E  E
e|----------------12------------------|------------------|
B|-----15b15.5-------15b15.5====(15)r-|---------15s14-14-|
G|------------------------------------|------------------|
D|------------------------------------|------------------|
A|------------------------------------|------------------|
E|------------------------------------|------------------|
 
 | +Q          Q   E  E       E   E     W
e|------------------------------------|------------------|
B|------------------------------------|------------------|
G|-(1)--------------------------------|------------------|
D|-(2)------------------------4---5---|-5----------------|
A|-(2)------------------------4---5---|-5----------------|
E|-(0)---------0---0--0-------2---3---|-3----------------|

                                ~~~~~~~~~~~~~~~~~~~~~~
   +Q        E  E E E E E   a E Q.       +H
e|-(7)------------7---7---|-----9--------(9)---------|
B|------------------------|--------------------------|
G|-(7)----------7---7---7-|-7s9----------------------|
D|------------------------|--------------------------|
A|------------------------|--------------------------|
E|------------------------|--------------------------|

 |      ~~~~~~~~
 |  S   E.  +H.               W
e|------------------------|--------------------------|
B|-----12--(12)-----------|--------------------------|
G|-13---------------------|--------------------------|
D|------------------------|--------------------------|
A|------------------------|--------------------------|
E|------------------------|--------------------------|
 
 | +Q        q    E E E E     Q    E E a  E   E  E E
e|-----------0------------|--------------------------|
B|-----------0------------|--------------------------|
G|-----------0------------|--------------------------|
D|-(5)--------------------|---2----4---4s=5------4---|
A|-(5)------------------0-|----------0-------(0)---0-|
E|-(3)--------------3-3---|--------------------------|

  ~~~~~
   +W                        W
e|-(9)---------------------|----------------|
B|-------------------------|----------------|
G|-------------------------|----------------|
D|-------------------------|----------------|
A|-------------------------|----------------|
E|-------------------------|----------------|

 |                               ~~
 |  H       E  e  Q          Q   Q   H
e|-------------------------|----------------|
B|------------12-15b15.5---|----12----------|
G|-------------------------|----------------|
D|-------------------------|----------------|
A|-------------------------|----------------|
E|-------------------------|----------------|

 |             ~~
 |  q   E E E  Q         E   Q   E E Q  E E
e|-------------------------|----------------|
B|-------------------------|----------------|
G|-------------2-----------|---------2----2-|
D|--5---4---5--------------|-4---6---4--6-4-|
A|--------0--------------0-|-2---2-2----2-2-|
E|-------------------------|----------------|

   W                   W
e|-------------------|-----------------|
B|-------------------|-----------------|
G|-------------------|-----------------|
D|-------------------|-----------------|
A|-------------------|-----------------|
E|-------------------|-----------------|
 
 |                 ~     ~
 | H       E a Q   E   S E S Q  H
e|-------------------|-----------------|
B|-------------------|-----------------|
G|-----------7h9---7-|-----------------|
D|-------------------|---9-------------|
A|-------------------|-----------------|
E|-------------------|-----------------|
 
 |                     PM-------|
 | E E E E E   E E E   Q     Q  Q  E E
e|-------------------|-----------------|
B|-----5-4-----------|-----------------|
G|---4-4-4-------4---|-----------------|
D|-4-4-4-4-4-----4---|-------2--2----2-|
A|-2-2-----2---2---2-|-------4--5--5-0-|
E|-------------------|-0-----0--0--0---|

[Verse 2]
               ~~                   ~
   a a  E   E  E  E  a E E   E E    Q  Q      H
e|-------------------------------|--------------------|
B|-----10-----10-12--------------|--------------------|
G|---x-----11-------11s9-7b8-----|----7b7.5-----------|
D|-x-------------------------9-9-|-9------------------|
A|-------------------------------|--------------------|
E|-------------------------------|--------------------|
 
 |      W                           W
e|-------------------------------|--------------------|
B|-------------------------------|--------------------|
G|-------------------------------|--------------------|
D|-------------------------------|--------------------|
A|-------------------------------|--------------------|
E|-------------------------------|--------------------|
 
 |     +E   E  E  E    E E   E E
e|-------------------------------|
B|-------------------------------|
G|-----------------------------4-| w/Rhy Fig 1
D|-----(2)-----4--2----2-2-----4-|
A|-----(0)--0-----0----0-0-----2-|
E|-------------------------------|
                  end Rhy Fig 2-|

    H                      E      E    S S E
e|-------------------------------------------|
B|-------------------------------------------|
G|--------------------------------9b11-9p7---|
D|-----------------------------------------9-|
A|-------------------------------------------|
E|-------------------------------------------|
 
 |  E   E     +E   E      +S   S  Q.
e|-----12b14r(12)-12pb14r(12)-10-------------|
B|-------------------------------12----------|
G|-------------------------------------------|
D|-------------------------------------------|
A|-------------------------------------------|
E|-------------------------------------------|

                           2/4                 4/4
              ~~                                          ~         ~~
   E    +E    Q  +Q    Q    E S S  E       E    Q  a  E E Q   a  E  E
e|------------------------|-------------------|------------------------|
B|-7----(7)---------------|-------------------|------------------------|
G|-7b8==(7)r--------------|--------7----------|-----------7---7h=9--7--|
D|------------9--(9)\-----|---7h9-------------|---------9--------------|
A|------------------------|-------------------|-7--9s11----------------|
E|------------------------|----------------0--|------------------------|
 
 |            ~~
 | Q          Q   H         Q      E      +E    Q     q   Q      E  E
e|------------------------|-------------------|-----------------12-----|
B|-----------12-----------|-------15pb17r(15)-|------15------------15--|
G|------------------------|-------------------|------------------------|
D|------------------------|-------------------|------------------------|
A|------------------------|-------------------|------------------------|
E|------------------------|-------------------|------------------------|

    ~~~
   +E     e    Q     H              W
e|-------------------------------|-------------------------------------|
B|-------------------------------|-------------------------------------|
G|-(7)---------------------------|-------------------------------------|
D|--------9----------------------|-------------------------------------|
A|-------------------------------|-------------------------------------|
E|-------------------------------|-------------------------------------|

 |                   ~~
 |  S   S E    E  E  Q   S  E.      E     +E       +Q     Q   E  E
e|----------------------14-------|-------------------------------------|
B|-----14-----14-12-12-----12----|-15b16r(15)b16==(15)r/--------15b17==|
G|-------------------------------|-------------------------------------|
D|-------------------------------|-------------------------------------|
A|-------------------------------|-------------------------------------|
E|-------------------------------|-------------------------------------|

                       ~~~~            ~
     Q         E   E   Q    a  S S E   Q  Q   H
e|-----------------------------------|---------------|
B|--------------------10-------------|---------------|
G|---------------/11-------11s=9p7---|-7-------------|
D|---------------------------------9-|----9----------|
A|-----------------------------------|---------------|
E|-----------------------------------|---------------|

 |        ~~~~~~~~~~~~~~~~
 |  +E    Q.          +Q       q       W
e|-----------------------------------|---------------|
B|-(15)r-12----------(12)------------|---------------|
G|----------------------------13-----|---------------|
D|-----------------------------------|---------------|
A|-----------------------------------|---------------|
E|-----------------------------------|---------------|

  2/4       4/4
   Q  E  E   Q  a  E E E E      E E
e|---------|------------------------|
B|---------|------------------------|
G|----7\---|-------------9b11---9p7-|
D|----7\---|---------9--------------|
A|---------|-7--9s11----------------|
E|-------0-|------------------------|
 
 | Q  Q      Q  a  Q   E E    a E E
e|---------|------------------------|
B|---------|------------------------|
G|-2--2----|----0h=1----------------|
D|-4--4----|----0h=2----------------|
A|-2--2----|----0h=2----------2h4---|
E|---------|-0---------0-0--------0-|

                                  ~~~~~~~~             ~~~
      E E    E E  a E E       S S E   +Q    E    E E   Q    e
e|------------------7---------------|--------------7----------|
B|---10-------------7-7-------------|------------7---/12---12-|
G|------9b11-9-7-10s9-7b7.5---------|-------9b11--------------|
D|----------------------------9p7-9-|-(9)---------------------|
A|----------------------------------|-------------------------|
E|----------------------------------|-------------------------|

[Chorus]
(Gtr 1)
                                 ~~~                 |-w/Rhy Fig 2
    E  E       E           E     Q           E     E    W
e|-12-12b14---10b10.5-----------10-------------------|-7-------------|
B|------------------------12----------------12\------|---------------|
G|------------------------------------------------/7-|---------------|
D|---------------------------------------------------|---------------|
A|---------------------------------------------------|---------------|
E|---------------------------------------------------|---------------|
 
(Gtr 2)
 |                               |---3----|
 |  Q          E      a a  E     E   E    E  q          W
e|------------------------14b17-----14---12----------|---------------|
B|----------------------x-------------------15b16----|---------------|
G|--------------------x------------------------------|---------------|
D|---------------------------------------------------|---------------|
A|---------------------------------------------------|---------------|
E|---------------------------------------------------|---------------|

   +H                  E E E E   +W
e|-(7)-----------------7-6-5-4-|-(4)--------------------|
B|-----------------------------|------------------------|
G|---------------------7-6-5-4-|-(4)--------------------|
D|-----------------------------|------------------------|
A|-----------------------------|------------------------|
E|-----------------------------|------------------------|
 
 |                                                    ~~
 |  Q    S      +S   E H          H       E  E     E  E
e|-----------------------------|------------------------|
B|------14pb15r(14)p12---------|------------14b15-14-12-|
G|-----------------------------|--------/13-------------|
D|-----------------------------|------------------------|
A|-----------------------------|------------------------|
E|-----------------------------|------------------------|

    +Q       Q  Q    E E   +W
e|--(4)----------------7-|-(7)--------|
B|-----------------------|------------|
G|--(4)-------------/7---|------------|
D|-----------------------|------------|
A|-----------------------|------------|
E|-----------------------|------------|
 
 |   ~~~~
 |  +S   S E Q  H           W
e|-----------------------|------------|
B|-(12)-14---------------|------------|
G|-----------------------|------------|
D|-----------------------|------------|
A|-----------------------|------------|
E|-----------------------|------------|

   +Q.     E E E E S S   W
e|-(7)-------7---7-----|-9-------------------|
B|---------------------|---------------------|
G|--------/7---7---7s9-|---------------------|
D|---------------------|---------------------|
A|---------------------|---------------------|
E|---------------------|---------------------|
 
 |  W                    W
e|---------------------|---------------------|
B|---------------------|---------------------|
G|---------------------|---------------------|
D|---------------------|---------------------|
A|---------------------|---------------------|
E|---------------------|---------------------|

   +H       H        Q   H              Q
e|-(9)-------------|----12b14----------12b14=======|
B|-----------------|-------------------------------|
G|-----------------|-------------------------------|
D|-----------------|-------------------------------|
A|-----------------|-------------------------------|
E|-----------------|-------------------------------|
 
 |  W                H          E S  S  E     E
e|-----------------|--------------7----------------|
B|-----------------|----------------10-------------|
G|-----------------|--------------------------7b8==|
D|-----------------|-------------------------------|
A|-----------------|-------------------------------|
E|-----------------|-------------------------------|

                                       ~~~~~~~~~~~~~
    +Q          Q       E      +E   E  E    +Q    Q   E      +E    q
e|-(12)r-------12b14---12pb14r(12)-10----|-----------10b11==(10)r-10b11--------|
B|------------------------------------12-|-(12)--12----------------------------|
G|---------------------------------------|-------------------------------------|
D|---------------------------------------|-------------------------------------|
A|---------------------------------------|-------------------------------------|
E|---------------------------------------|-------------------------------------|
 
 |                                  ~~~~~~~~~~~~
 |       |-3-|
 |  +E   S S S  Q       E       E   Q       +Q    Q   E       e    e    E
e|---------------------12----------------|-------------------------------------|
B|-----------------------------15--12----|-(12)--------------------------------|
G|--(7)r---------------------------------|--------------------7----9----9b11===|
D|-------9p7-----------------------------|-------------------------------------|
A|-----------9---------------------------|-------------------------------------|
E|---------------------------------------|-------------------------------------|

    E           +E    E    E  E      +S   +S   E  E
e|-12b14=======(12)r-12---10-12b14==(12)r(12)p10----|
B|-----------------------------------------------12-|
G|--------------------------------------------------|
D|--------------------------------------------------|
A|--------------------------------------------------|
E|--------------------------------------------------|
 
 |  |--3--|
 | +E     Q          +E    E  H
e|--------------------------------------------------|
B|--------------------------------------------------|
G|-(9)r---7b8========(7)r--7------------------------|
D|--------------------------------------------------|
A|--------------------------------------------------|
E|--------------------------------------------------|
 
 | +E            E    E    E  E       E        E  E
e|--------------------------------------------------|
B|--------------------------------------------------|
G|------------------------------------------------4-|
D|-(2)----------------4----2--2-------2-----------4-|
A|-(0)-----------0---------0--0-------0-----------2-|
E|--------------------------------------------------|

                                              ~~~~~~~~~~~
    +Q    Q          +E      +E      E       E
e|-------12b14======(12)r===(12)----10b10.5-------|
B|-(12)-------------------------------------12----|
G|------------------------------------------------|
D|------------------------------------------------|
A|------------------------------------------------|
E|------------------------------------------------|
 
 |             |-----3-----|
 | Q    E     +E   +E   E       E  E       E
e|------------------------7-----------------------|
B|-------------------------------10---------------|
G|--------9b11==(9)--(9)r--------------------7b8==|
D|------------------------------------------------|
A|------------------------------------------------|
E|------------------------------------------------|
 
 | +Q    E      E    Q              E       E
e|------------------------------------------------|
B|------------------------------------------------|
G|--(4)---------------2----------------------2----|
D|--(4)---6-----------4--------------6-------4----|
A|--(2)---5------5-------------------2-------2----|
E|------------------------------------------------|

  ~~~~~~~                     ~~~~~~~~~~
    +Q          q    E  E  E  E    +Q     E  E  q             E    E
e|------------------------------|-----------(0)------------------------|
B|-(12)--------10---10----10-12-|-(12)\------0--7----------------------|
G|---------------------11-------|--------/4-----7b7.5---------9b11-9---|
D|------------------------------|--------------------------------------|
A|------------------------------|--------------------------------------|
E|------------------------------|--------------------------------------|
 
 |                                  ~~~~~
 |       |-3-|
 |  +E   S S S  E E  E  E  q        Q     q     E     E      +Q
e|------------------------------|--------------------------------------|
B|------------------10-12-12----|--12----10-----9----------------------|
G|--(7)r------------------------|---------------9-----7b8====(7)r------|
D|-------9p7----7-9-------------|--------------------------------------|
A|-----------9------------------|--------------------------------------|
E|------------------------------|--------------------------------------|
 
 |   Q          E E  E  E  E  E     Q     Q     E     E    a  E    E
e|------------------------------|---------0-----0-----0----------------|
B|------------------------------|---------3-----3-----3----------------|
G|--------------2---------------|---------1-----1-----1----------------|
D|---4----------4-4--4--------2-|---------2-----2-----2----------------|
A|---2------------2--2--2--0--2-|---------2-----2-----2----0h=2----0---|
E|------------------------------|---0----------------------------------|

[Bridge]
   a S S  E  E    S S E E E a E     Q   Q    H
e|------------------------------|------------------|
B|-----------7------------------|------------------|
G|-7h9p7-----7----------7-9-----|--7---7\----------|
D|--------9-------9s6s9---------|--7---7\----------|
A|--------------------------7h9-|-(9)--9\----------|
E|------------------------------|------------------|
 
 |   E    E  q        H             W
e|-------10-10b11---------------|------------------|
B|------------------------------|------------------|
G|------------------------------|------------------|
D|------------------------------|------------------|
A|------------------------------|------------------|
E|------------------------------|------------------|
 
 |   E    E  E    E   E E E a E     Q   E  E Q  E E
e|------------------------------|------------------|
B|------------------------------|-----------7------|
G|--------------------2---------|--7--------7------|
D|---2----2--4--------2---2-----|--7---9--7-7--9-7-|
A|---0----0--0----0-----0-0-0h5-|--5---5--5-8--5-5-|
E|------------------------------|------------------|

                                               ~~
   E     E  Q      E    +E  E     E    E    E  Q    E   E    E E
e|----------------------------------|--------------(7)-------7---|
B|----------------------------------|-----/12-12----7--10b12-7-7-|
G|-9b11==9r-9b11---9b11r(9)-7b7.5---|----------------------------|
D|--------------------------------9-|--0-------------------------|
A|----------------------------------|----------------------------|
E|----------------------------------|----------------------------|
 
 | W                                   W
e|----------------------------------|----------------------------|
B|----------------------------------|----------------------------|
G|----------------------------------|----------------------------|
D|----------------------------------|----------------------------|
A|----------------------------------|----------------------------|
E|----------------------------------|----------------------------|
 
 | Q        E    E E     E  E     E   +E    E  E E  Q        E E
e|----------------------------------|----------------------------|
B|-7--------------------------------|----------------------------|
G|-7------------------------------4-|-(4)-----------4------------|
D|-7--------9----7----------------4-|-(4)---4--6----4--------6-4-|
A|-5--------5----5-------0--2-----2-|-(2)---2--2-2-----------2-2-|
E|----------------------------------|----------------------------|

                                         ~~
   S    S E E E a E E    E E   a  E  E   Q    H
e|---------------------------|------------------------|
B|----------------7----------|------------------------|
G|-9b11-9p7-----7h9-7------7-|-7h=9--7---7\-----------|
D|----------9------------9---|------------------------|
A|------------9--------------|------------------------|
E|---------------------------|------------------------|
 
 |                         ~~~~~~~~~~
 | H              E E    E E     +E  S S Q    H
e|---------------------------|------------------------|
B|---------------------------|------------------------|
G|------------------9b11-9-7-|---(7)------------------|
D|---------------------------|-------9p7--------------|
A|---------------------------|------------------------|
E|---------------------------|------------------------|
 
 | Q        E E   E E    E E      Q      E  E E E E E
e|---------------------------|------------------------|
B|---------------------------|------------------------|
G|-4--------------4-4--------|----7-----------7-----7-|
D|-4--------6-4---4-4----6-4-|----7-----------7---9-7-|
A|-2--------2-2---2-2----2-2-|----5---------5---5-5-5-|
E|---------------------------|------------------------|

                           ~~~
    W                 Q    Q    E      +E   E  E
e|------------------|----------10b11==(10)r---12b14-|
B|------------------|----/12------------------------|
G|------------------|-------------------------------|
D|------------------|-------------------------------|
A|------------------|-------------------------------|
E|------------------|-------------------------------|
 
 |  W                 W
e|------------------|-------------------------------|
B|------------------|-------------------------------|
G|------------------|-------------------------------|
D|------------------|-------------------------------|
A|------------------|-------------------------------|
E|------------------|-------------------------------|
 
 | +E  E E E Q  E E   Q    E E  E       Q      E
e|------------------|-------------------------------|
B|------------------|-------------------------------|
G|-(7)-------7------|------4----4-------4-----------|
D|-(7)-7-9-7-7----4-|-4----4----4-------4-----------|
A|-(5)---5-5-5--0-2-|-2------2----------------------|
E|------------------|--------------------------7----|

(Gtr 1)
    E  E  E      +E    a  Q         E  E
e|-12-10-12b14==(12)r----10b10.5---------|
B|--------------------10-----------12\---|
G|-------------------------------------2s|
D|---------------------------------------|
A|---------------------------------------|
E|---------------------------------------|
 
(Gtr 3)
 |  E  Q          E       E      E  E  E
e|---------------------------------------|
B|---------------------------------------|
G|---------------------------------------|
D|---------------------------------------|
A|--5--5------------------9------8--8--6-|
E|----------------7-------7------6--5--4-|

                   ~
   Q  E E H        Q  H       E E   W
e|----7---7------|-7--7-------7s9-|-9---------------|
B|---------------|----------------|-----------------|
G|-7----7--------|-7--7-------7s9-|-9---------------|
D|---------------|----------------|-----------------|
A|---------------|----------------|-----------------|
E|---------------|----------------|-----------------|
 
 | Q  E E Q  E E   Q  E E E E E E   Q  E E E E E E
e|---------------|----------------|-----------------|
B|---------------|----------------|-----------------|
G|---------------|----------------|-2---------------|
D|---------------|----------------|-2--4---5---4----|
A|-5--5-5-5--5-5-|-5----5-5-5-5-0-|-0----0---0---0--|
E|-3--3-3-3--3-3-|-3----3-3-3-3---|-----------------|

                       [Breakdown]
  (Gtr 1)
   +H.           Q        Q   Q       Q.    E
e|-(9)-----------x\---|----------------------|
B|---------------x\---|------7---------------|
G|-(9)-----------x\---|------7b7.5-----------|
D|--------------------|--------------9-----9-|
A|--------------------|----------------------|
E|--------------------|----------------------|
 
(Gtr 2)
 |  W                     W
e|--------------------|----------------------|
B|--------------------|----------------------|
G|--------------------|----------------------|
D|--------------------|----------------------|
A|--------------------|----------------------|
E|--------------------|----------------------|
 
(Gtr 3)
 |             ~
 |  E  E E E E Q    E    +Q   E     E Q   E E
e|--------------------|----------------------|
B|--------------------|----------------------|
G|-------------2------|--------------2-------|
D|--5----4---5------4-|-(4)--6-------4---6-4-|
A|-----0---0--------2-|-(2)--2-----2-----2-2-|
E|--------------------|----------------------|

                                    ~
   +Q          E E  a  E  E  E  E   Q  Q    H
e|--------------------------------|-----------------------|
B|--------------------------------|-----------------------|
G|--------------------------------|-----------------------|
D|-(9)---------9-7----------------|-----------------------|
A|------------------9s=7--5-----5-|-7---------------------|
E|---------------------------7----|-----------------------|
 
 |  E   Q        E  a  E  E  E  E   H       E  Q.
e|-----10b10.5-----13s12p10-12p10-|-----------------------|
B|--------------------------------|-----------------------|
G|--------------------------------|------------9b11-------|
D|--------------------------------|-----------------------|
A|--------------------------------|-----------------------|
E|--------------------------------|-----------------------|
 
 | +H                  E  E  E  E   Q  E E +Q       a E E
e|--------------------------------|-----------------------|
B|--------------------------------|------0-(0)------------|
G|---------------------------2--4-|----1------------------|
D|-(4)-----------------2--4-------|----2------------------|
A|-(2)----------------------------|----2------------0h2p0-|
E|--------------------------------|-0---------------------|

    Q       E     E   a  E    E       E       E     H         H
e|----------------------------------------------|-------------------------|
B|----------------------------------------------|-------------------------|
G|--------------------------------------------7-|-------------------------|
D|----------------------------7-------9---------|---7tr9------7tr9--------|
A|----------5-----7---7s=9----------------------|-------------------------|
E|----------------------------------------------|-------------------------|
 
 |                                            ~~~~~~~~~~~
 |  S   S e E    +E      E.      +S   E       E    +Q.      E H
e|--7-------------------12b14r==(12)-10b10.5----|-------------------------|
B|-----10p7----------------------------------12-|-(12)--------------------|
G|----------7b8==(7)r---------------------------|-------------------------|
D|----------------------------------------------|-------------------------|
A|----------------------------------------------|-------------------------|
E|----------------------------------------------|-------------------------|
 
 | +E     E e     E      Q            q             Q     q   Q     E a E
e|----------------------------------------------|-------------------------|
B|----------------------------------------------|---------4---------9-7---|
G|----------7-----------------------------------|---------4---------9-7h8-|
D|----------7-------------------------2---------|---4-----4---4-----9-----|
A|-(0)----0-------0------0------------0---------|---2---------2-----------|
E|----------------------------------------------|-------------------------|

   H                 Q        Q             Q.     a E  E  E E E
e|--------------------------------------|--------------------------|
B|--------------------------------------|--------------------------|
G|--------------------------------------|--------------------7-----|
D|--------------------------------------|--------------------7-----|
A|-7tr9--------------5tr7-----5b5.5-----|----------7s9--9--9---9---|
E|--------------------------------------|---0----------------------|
 
 | H              a  E     E  Q            +Q    Q      H
e|---------------13s12-------10b10.5====|=(10)r--------------------|
B|------------------------12------------|--------------------------|
G|--------------------------------------|--------------------------|
D|--------------------------------------|--------------------------|
A|--------------------------------------|--------------------------|
E|--------------------------------------|--------------------------|
 
 | Q     a E  E      E     E  E       E     Q    Q     +E  E e E
e|--------------------------------------|--------------------------|
B|--------------------------------------|--------0-----(0)---3-----|
G|-------7h9-(7)------------------------|--------1-----(1)---1-----|
D|-------7h9-(7)--------------7h======9-|--------2-----(2)---2-----|
A|-------------------7h====9------------|--------2-----(2)-----0---|
E|-7------------------------------------|---0--------------0-------|

[Outro]
                                                 ~~
     E  E  E  E  E  E  E  E     Q   E.      +S   Q    E  E
e|---------------------------|----12b14r==(12)------------|
B|-/10-10-10-10-10-10-10-10/-|-----------------12---10-12-|
G|-/11-11-11-11-11-11-11-11/-|----------------------------|
D|---------------------------|----------------------------|
A|---------------------------|----------------------------|
E|---------------------------|----------------------------|
 
 |                                  ~~~~~~~
 |   W                          Q   H.
e|---------------------------|----------------------------|
B|---------------------------|----12pb14==================|
G|---------------------------|----------------------------|
D|---------------------------|----------------------------|
A|---------------------------|----------------------------|
E|---------------------------|----------------------------|
 
 |   E  E  E  E  E  E  E  E     Q   q            E E  E  E
e|---------------------------|----------------------------|
B|---------------------------|----------------------------|
G|---------------------------|--------------------------4-|
D|---2--2--2--2--2--2--2-----|-4---6--------------4--6--4-|
A|---0--0--0--0--0--0--0-----|-2---2--------------2--2--2-|
E|------------------------0--|----------------------------|
                             |-Rhy Fig 3

                       ~~~~~~~                         ~~~
     E       Q         E  +Q     Q      Q   E     +E   Q     E  E
e|--10b10.5-10b10.5-------------------|----12b14r(12)-------------|
B|--------------------12-(12)---10\---|---------------12----10-12-|
G|------------------------------------|---------------------------|
D|------------------------------------|---------------------------|
A|------------------------------------|---------------------------|
E|------------------------------------|---------------------------|
 
 |  +E       E      Q      H            W
e|------------------------------------|---------------------------|
B|-(12)r\-----------------------------|---------------------------|
G|------------------------------------|---------------------------|
D|------------------------------------|---------------------------|
A|------------------------------------|---------------------------|
E|------------------------------------|---------------------------|
 
 |  +Q              q      E  E  E  E   Q   Q         +E  E  E  E
e|------------------------------------|-----0---------(0)----0----|
B|------------------------------------|-----0---------(0)----0----|
G|--(4)--------------------------2--4-|-----1---------(1)----1----|
D|--(4)-------------6------2--4-------|-----2---------(2)----2----|
A|--(2)-------------2-----------------|-----2---------(2)----2----|
E|------------------------------------|-0-------------------------|

                                 ~~~~~~~~~~                       ~~~~~~
    E     +E   E  E     E     E  Q       Q   Q       +E   +E   E  E
e|-12b14r(12)-10-------12b14-12-10----|-----12b14===(12)r(12)-10-------|
B|---------------12-------------------|-12-----------------------12----|
G|------------------------------------|--------------------------------|
D|------------------------------------|--------------------------------|
A|------------------------------------|--------------------------------|
E|------------------------------------|--------------------------------|
 
 |                                           ~~~~~~~~~~~~~
 |  E      E   E  E     E     E  E  E    Q   Q       +q        E  E
e|-------/10\-------------------------|--------------------------------|
B|---------------14b15-------14----12-|-----12------(12)---------------|
G|------------------------------------|------------------------9--7b8==|
D|------------------------------------|--------------------------------|
A|------------------------------------|--------------------------------|
E|------------------------------------|--------------------------------|
 
 |  E      E   E  E     E     E  E  E
e|------------------------------------|
B|------------------------------------|
G|--2------2---2--2-----2-----2--2--2-| w/Rhy Fig 3 to end
D|--2------2---2--2-----2-----2--2--2-|
A|--0------0---0--0-----0-----0--0--0-|
E|------------------------------------|
                       end Rhy Fig 3-|

  ~~~~~~~                    ~~~~~~~~~
    +Q        E  E  e  e  e  E    +Q    E          +E       +E      +E    E      +E
e|-----------------------------|-------12b14r=====(12)b14==(12)----(12)r-12b14==(12)r--|
B|-(12)------10----10-10-12-12-|-(12)--------------------------------------------------|
G|--------------11-------------|-------------------------------------------------------|
D|-----------------------------|-------------------------------------------------------|
A|-----------------------------|-------------------------------------------------------|
E|-----------------------------|-------------------------------------------------------|
 
 |  +E   S S  Q     E  E  E  E     Q    S     +S    e        S   S   E    q
e|-----------------------------|-------12b14r(12)--10-------12p=10---------------------|
B|-----------------------12-12-|------------------------------------12---12------------|
G|--(7)r--------------11-------|-------------------------------------------------------|
D|-------7h9--9----------------|-------------------------------------------------------|
A|-----------------------------|-------------------------------------------------------|
E|-----------------------------|-------------------------------------------------------|

    Q       E  E      +E       +E           E  E       Q         H               E  E
e|-12b14---10-12b13==(12)b14==(12)r--------10----|--------------14b17-----------14-12-|
B|--------------------------------------------12-|------------------------------------|
G|-----------------------------------------------|------------------------------------|
D|-----------------------------------------------|------------------------------------|
A|-----------------------------------------------|------------------------------------|
E|-----------------------------------------------|------------------------------------|
 
 |                                                                         ~~~~~~~~~~~~
 |                              |---3---|              |3-|
 |  Q       E  E       E        E      +S   Q       a  E  S  E   E     E  +Q     Q
e|---------10-12b14---12-------12pb14r(12)p10----|-10h12-10---------------------------|
B|-----------------------------------------------|----------12\-------12-(12)---12----|
G|-----------------------------------------------|------------------------------------|
D|-----------------------------------------------|------------------------------------|
A|-----------------------------------------------|------------------------------------|
E|-----------------------------------------------|------------------------------------|

                                                       ~~~~~~~~~~~~~~~
     E      +E   E  S   S   E       E  E    a  E       E  E  E  E  E  E  E  E
e|-----------------------------------------------|----------------------------|
B|--15b16==(15)r---------------------------------|----10-10-10-10-10-------12-|
G|-----------------/7s(14)--x-------7--9----9s11-|-------11-11-11-11s=4/------|
D|--------------------------x--------------------|----------------------------|
A|-----------------------------------------------|----------------------------|
E|-----------------------------------------------|----------------------------|
 
 |~~~~~~~~~
 |  +Q           E  E       E       E  Q            a  q     Q     H
e|-------------------------10b10.5-12-10b11------|----------------------------|
B|-(12)\-----------12----------------------------|-12p10----------------------|
G|-----------------------------------------------|----------------------------|
D|-----------------------------------------------|----------------------------|
A|-----------------------------------------------|----------------------------|
E|-----------------------------------------------|----------------------------|

    E       E     E     S     +S   E  a  E  E      E        +Q     Q       +E    Q.
e|--7-------------7----------------7-------10-----12b14==|=(12)r--12b14===(12)r-12b14-----|
B|---------10b12-------10b12r(10)----10s12---------------|--------------------------------|
G|-------------------------------------------------------|--------------------------------|
D|-------------------------------------------------------|--------------------------------|
A|-------------------------------------------------------|--------------------------------|
E|-------------------------------------------------------|--------------------------------|
 
 |  E       E     E     E          E     E  E     +E         q     Q        H
e|-10b10.5-12----12b13-10---------12p===10-10b11r(10)----|--------------------------------|
B|-------------------------------------------------------|--12----------------------------|
G|-------------------------------------------------------|--------------------------------|
D|-------------------------------------------------------|--------------------------------|
A|-------------------------------------------------------|--------------------------------|
E|-------------------------------------------------------|--------------------------------|

    a       +E       +E    Q             Q       a       +E       +E
e|-12pb13==(12)b14==(12)r-12b14---------12b14---12pb13==(12)b14==(12)r-|
B|---------------------------------------------------------------------|
G|---------------------------------------------------------------------|
D|---------------------------------------------------------------------|
A|---------------------------------------------------------------------|
E|---------------------------------------------------------------------|
 
 |
 |           Q             E     E      +q                Q
e|---------------------------------------------------------------------|
B|------------------------------15b17==(15)r---------------------------|
G|---------------------------------------------------------------------|
D|---------------------------------------------------------------------|
A|---------------------------------------------------------------------|
E|---------------------------------------------------------------------|

    a         +E       +E    a       +E       +E     E      +E    E      +E
e|-12pb12.5==(12)b14==(12)r-12pb13==(12)b14==(12)r--12b14==(12)r-12b14==(12)r-|
B|----------------------------------------------------------------------------|
G|----------------------------------------------------------------------------|
D|----------------------------------------------------------------------------|
A|----------------------------------------------------------------------------|
E|----------------------------------------------------------------------------|
 
 |                                              ~~~~~~~~~~~~
 |             E        E    a        e        E    +E       E    Q
e|----------------------------------------------------------------------------|
B|------------14b15----14---12h======14-------12---(12)-----14----------------|
G|----------------------------------------------------------------------------|
D|----------------------------------------------------------------------------|
A|----------------------------------------------------------------------------|
E|----------------------------------------------------------------------------|

                                          ~~~~~~                          ~~~~~~~~~~~~~~~
    E  e      E     E      E  E           Q           E      +E           Q    Q       Q
e|-12-10------------------12-10b11----------------|--10b11==(10)r--------------------------|
B|-----------12----12--------------------12-------|----------------------12---12------12---|
G|------------------------------------------------|----------------------------------------|
D|------------------------------------------------|----------------------------------------|
A|------------------------------------------------|----------------------------------------|
E|------------------------------------------------|----------------------------------------|
 
 |                                                                        ~~~~~~~~~~~~
 |  E  E      E     E      E  S      +S   Q          +E.           S      Q   +E   Q.
e|------------------------------------------------|----------------------------------------|
B|-15-15pb17-15b16-15pb17-15-15pb17r(15)-15b17====|=(15)r---------15pb16-12--(12)-12-------|
G|------------------------------------------------|----------------------------------------|
D|------------------------------------------------|----------------------------------------|
A|------------------------------------------------|----------------------------------------|
E|------------------------------------------------|----------------------------------------|

                                    ~~~~~~~~~~~~~
    Q.        +E    E      +E    E  E    +E       E  e     E      e   e  E      +E
e|-12b14=====(12)r-10b11==(10)r-------|-------------10b11-12b14--12--10-12b14==(12)r-|
B|------------------------------12-12-|-(12)-----12----------------------------------|
G|------------------------------------|----------------------------------------------|
D|------------------------------------|----------------------------------------------|
A|------------------------------------|----------------------------------------------|
E|------------------------------------|----------------------------------------------|
 
 |                                                         ~~~~~~~~~~
 |  W                                     q          e     E     +Q      Q
e|------------------------------------|----------------------------------------------|
B|------------------------------------|--15b15.5----12----12----(12)-----------------|
G|------------------------------------|----------------------------------------------|
D|------------------------------------|----------------------------------------------|
A|------------------------------------|----------------------------------------------|
E|------------------------------------|----------------------------------------------|

    ~~                                        ~~~~~~~~~~~~
    Q    E  E  E     E  Q           +E   +E   Q   +E.        +S    E       E
e|-12---10----10b11-12-12b14=====|=(12)r(12)-------------------------------------|
B|---------12--------------------|-----------12--(12)-------(12)\---------12b15==|
G|-------------------------------|-----------------------------------------------|
D|-------------------------------|-----------------------------------------------|
A|-------------------------------|-----------------------------------------------|
E|-------------------------------|-----------------------------------------------|
 
 |                      ~~~~~~                ~~
 |  H          E     E  E      e     q        Q    Q               E       E
e|-------------------------------|-----------------------------------------------|
B|------------14b15-14-12--------|--12-------12---15b15.5---------15b15.5-12-----|
G|----------------------------13-|-----------------------------------------------|
D|-------------------------------|-----------------------------------------------|
A|-------------------------------|-----------------------------------------------|
E|-------------------------------|-----------------------------------------------|

                                 ~~~~
    +E    E  e      e      E    +E    E    e
e|-----------------------------------------7--|
B|-(12)r\----------------------------------7--|
G|--------9--9b9.5--9b9.5--7b8==(7)r----------|
D|------------------------------------9-------|
A|--------------------------------------------|
E|--------------------------------------------|
 
 |   Q       E      E      Q          q
e|----------12--------------------------------|
B|-----------------15-----15b17------15b16----|
G|--------------------------------------------|
D|--------------------------------------------|
A|--------------------------------------------|
E|--------------------------------------------|

    E    E  E     E     E   E  S     +S   E
e|-------7--7-----------7---7-------------7---------|
B|-10b12---------10b12--------10b12r(10)--7---------|
G|--------------------------------------------------|
D|--------------------------------------------------|
A|--------------------------------------------------|
E|--------------------------------------------------|
 
 |  ~~~~~
 |  Q       S  S  E     E   E  E          S     +S
e|--------------------------------------------------|
B|-12---------12-12----------------------14b16r(14)-|
G|---------13----------13---------------------------|
D|-------------------------14-----------------------|
A|--------------------------------------------------|
E|--------------------------------------------------|

               |---3----|
   a      +E   E  E    E   E  E    E  E      +E
e|--------------7-------7---7-------7-10b11==(10)r-|
B|-10pb12r(10)--7-10b12-------10b12----------------|
G|-------------------------------------------------|
D|-------------------------------------------------|
A|-------------------------------------------------|
E|-------------------------------------------------|
 
 |          E   E  Q           H
e|-------------------------------------------------|
B|---------12-----14-------------------------------|
G|-------------13----------------------------------|
D|-------------------------------------------------|
A|-------------------------------------------------|
E|-------------------------------------------------|

   Q   E  E       +Q     +Q       +E   E  E  E  a  E     E   S  S E
e|-----------------------------|------------------------------------|
B|----10-10pb12==(10)---(10)r==|=(10)-10-10-10----------------------|
G|-----------------------------|------11-11-11-11s=9-----7----------|
D|-----------------------------|-----------------------------9p=7-9-|
A|-----------------------------|------------------------------------|
E|-----------------------------|------------------------------------|
 
 |                    ~                               ~~~~~~~~~~
 | H               E  Q      E     Q      E  E     S  E.    +Q
e|-----------------------------|------------19----17s19----(19)-----|
B|-----------------------------|------------------------------------|
G|--------------------7--------|------------------------------------|
D|-----------------------------|------------------------------------|
A|-----------------------------|------------------------------------|
E|-----------------------------|------------------------------------|

   Q   E     +E      E       +E   E E
e|------------------------------------|
B|----10b12r(10)----------------------|
G|-------------------7b8=====(7)r---7-|
D|--------------------------------9---|
A|------------------------------------|
E|-0----------------------------------|
 
 |            |-3-|  |--3--|
 | Q   E     +E   S  E     S  e   Q
e|------------------------------------|
B|----14b16r(14)p12-------12----------|
G|------------------13-------11-------|
D|------------------------------------|
A|------------------------------------|
E|------------------------------------|

                         ~~~~~~~~~~            ~~~~~
   E  E  E  E  E  E    E E    +E   E  Q       +Q.       +E
e|-------------------------|----------------------------------*|
B|-------------------------|---------10b12===(10)------(10)r\-*|
G|-------------------------|-------7--------------------------*|
D|-9---------------------9-|--(9)-----------------------------*|
A|----9--8--7--7--5b6------|----------------------------------*|
E|-------------------------|----------------------------------*|
 
 |                     ~~~~~~~~~~~~~~~~~~~~~~~~~~~~
 | E  E  E  E  e  E    Q      +Q      Q       +Q.        E
e|-------------------------|---------12b14===(12)r------12b14-*|
B|---15-14p12-14-12---12---|-(12)\----------------------------*|
G|-------------------------|----------------------------------*|
D|-------------------------|----------------------------------*|
A|-------------------------|----------------------------------*|
E|-------------------------|----------------------------------*|


************************************

| s    Slide
| (n)  Ghost note
| b    Bend
| pb   Pre-bend
| r    Release
| h    Hammer-on
| x    Dead note
| /    Slide up
| \    Slide down
| p    Pull-off
| PM   palm mute
| tr   tremolo
 
************************************

            
            
Suggest correction
Creating personal tab
Creating personal tab
You can edit any tab online and save it as your Personal.

You can edit, replace or remove any tab part or add personal notes – all changes will be seen only by you.

Personal tabs can be accessed anytime from any device, even offline.
Learn more »
comments
print report bad tab
1 comment total.
0 reply
ShaneLanden 10 Jun 02, 2013 08:53 PM

Awesome song and great tab. thank you.

guest
You may want to rate the tab now too:
select rating
Wanna post a correction for this tab? Suggest correction