Oops, an error
Loading. Please wait.
We have Chord Pro version of The Thrill Is Gone.
It's the closest thing you can get to the original song and it has interactive parts. Check out the tab »
×

The Thrill Is Gone intro tab

version 2
version 2

Intro

  • It is a version that should be pretty easy to learn.

Whole song

136 views 12 this week
no commentswrite comment
1 2 3 4 5
2 more votes to show rating
add to favorites
×
Save as Personal and add changes to this tab that will be seen only by you. Learn more ›
×
You can save this tab as Personal to edit and correct it or add notes. All changes will be seen only by you. Learn more »
launch autoscroll
font size
0
reset
how to read this tab
guitar tuner
backing track
0:00
0:00
edit
Autoscroll
slow
fast
+/-
esc
set tempo
stop
About this tab version
It is a version that should be pretty easy to learn. Was this info helpful? Yes No
(You can try differnt methods like "hammer on" "pull off" "bend" and "vibrato")

[Intro]
e|-7-7-10-7-10-14-12-10-12-10-10-12-7-10-14-12-10-14-12-|-10|-12-10-12-7-10-7-5-------------5-7-7-10-12-14-12|
B|-7---------------------------------------------------|----------------------7-5-------5-7------------------|
G|-----------------------------------------------------|-------------------------7-4-4-7---------------------|
D|-----------------------------------------------------|-----------------------------------------------------|
A|-----------------------------------------------------|-----------------------------------------------------|
E|-----------------------------------------------------|-----------------------------------------------------|

e|7-7-5-5-7-12-10-7-10-7-5-----------------------------|-----------------------------------------------------|
B|--------------------------7-5------------------------|-----------------------------------------------------|
G|-----------------------------7-4---------------------|-----------------------------------------------------|
D|-----------------------------------------------------|-----------------------------------------------------|
A|-----------------------------------------------------|-----------------------------------------------------|
E|-----------------------------------------------------|-----------------------------------------------------|
  

I just sat down and improvised a little to try and make something that sounded at least a little bit like the 
original. This is also my first tab so i excuse if it's pretty poorly made

            
            
Suggest correction
Creating personal tab
Creating personal tab
You can edit any tab online and save it as your Personal.

You can edit, replace or remove any tab part or add personal notes – all changes will be seen only by you.

Personal tabs can be accessed anytime from any device, even offline.
Learn more »
Give kudos to tab author, rate the tab!
1 2 3 4 5
comments
print report bad tab
guest
You may want to rate the tab now too:
select rating
Wanna post a correction for this tab? Suggest correction