Oops, an error
Loading. Please wait.
We have Chord Pro version of The Thrill Is Gone.
It's the closest thing you can get to the original song and it has interactive parts. Check out the tab »
×
1,129 views 12 this week
no commentswrite comment
1 2 3 4 5
3 more votes to show rating
add to favorites
×
Save as Personal and add changes to this tab that will be seen only by you. Learn more ›
×
You can save this tab as Personal to edit and correct it or add notes. All changes will be seen only by you. Learn more »
launch autoscroll
font size
0
reset
how to read this tab
guitar tuner
backing track
0:00
0:00
edit
Autoscroll
slow
fast
+/-
esc
set tempo
stop
Gtr I
       ~~~~                                                   ~~~~~~           ~~~    
       H.       E E    E       E  E a     +e  E E E E   E E e E +Q   E S      +S
e|------------------|-10b10.5-------------------------|---------------------------|
B|---^12-------12---|---------12-10-------------------|---------------------------|
G|---^-x------------|---------------9b11-(11)-7-7-9---|-7------------7-9b11==(11)-|
D|---^-x------------|-------------------------------9-|---9-9-9-(9)---------------|
A|------------------|---------------------------------|---------------------------|   
E|------------------|---------------------------------|---------------------------|

     ~~~~                ~~~~~                ~~
   +Q     E e H          a     +Q.    E       Q  Q
e|----------7---------|-10b12-(12)---10b10.5--------|
B|--------7-----------|----------------------12-----|
G|-(11)r--------------|-----------------------------|
D|--------------------|-----------------------------|
A|--------------------|-----------------------------|
E|--------------------|-----------------------------|
|

                                                                     ~~~~
    Q    E  E       E      E      E      E        a     +Q    a     +Q    Q   E  a      +E
e|---------10b10.5-10pb11-10pb11-10pb11-10pb11-|-10b12-(12)--10b11-(11)---------10b12==(12)---|
B|------12-------------------------------------|-------------------------12--12---------------|
G|---------------------------------------------|----------------------------------------------|
D|---------------------------------------------|----------------------------------------------|
A|---------------------------------------------|----------------------------------------------|
E|---------------------------------------------|----------------------------------------------|
          ~~~               ~~~                       ~~~~~~~~
    +E    Q.          Q     Q        E  E  E  E       Q     e E
e|-(12)r-10-----------------------|-10-12-12-10b10.5------------|
B|-------------------------12-----|------------------12----12---|
G|--------------------------------|-----------------------------|
D|--------------------------------|-----------------------------|
A|--------------------------------|-----------------------------|
E|--------------------------------|-----------------------------|

                              ~~~                     ~~
   Q    E  a     +e  Q     S  E.    Q.        E       Q   Q
e|-----12-12b14-(14)------10h12--|-10b10.5---10b10.5-----10b10.5----|
B|-------------------------------|-------------------12-------------|
G|-------------------------------|----------------------------------|
D|-------------------------------|----------------------------------|
A|-------------------------------|----------------------------------|
E|-------------------------------|----------------------------------|

    e E Q      Q  q        W          W          W
e|-12-------------7---||------------|----------|----------------|
B|----------------7---||------------|----------|----------------|
G|--------------------||------------|----------|----------------|
D|--------------------||------------|----------|----------------|
A|--------------------||------------|----------|----------------|
E|--------------------||------------|----------|----------------|
|
 |                         ~
 |  Q   E. S a Q  E E    a W          W          Q  a Q  a H
e|--------------------||------------|----------|----------------|
B|--------------------||------------|----------|----7s9--9s7----|
G|--------------------||------------|----------|----7s9--9s7----|
D|----------------7---||-7s9--------|----------|----7s9--9s7----|
A|--5---7--5-7s9----9-||------------|----------|----------------|
E|--------------------||------------|----------|----------------|


  

[Verse]

   Gtr I
   H     Q      a E     E      H    Q  q    W          H    E e Q
e|------------------------||-----------7--|----------|-------------|
B|------------------------||-----------7--|----------|--------7----|
G|--------------9p7b7.5---||--------------|----------|-------------|
D|------------------------||--------------|----------|-------------|
A|------------------------||--------------|----------|-------------|
E|------------------------||--------------|----------|-------------|

   Gtr I
   Q   a     +Q    a     +Q    a     +Q
e|----------------------------------------|
B|----10b12-(12)--10b12-(12)--10b12-(12)--|
G|----------------------------------------|
D|----------------------------------------|
A|----------------------------------------|
E|----------------------------------------|

                                        ~~
    Q  Q  H      Q   a     +E.  S       H
e|-------------|----10b12-(12)-10b10.5-------|
B|-10----------|-----------------------12----|
G|-------------|-----------------------------|
D|-------------|-----------------------------|
A|-------------|-----------------------------|
E|-------------|-----------------------------|


    +H     Q  S E.   W          W          W
e|-----------------|----------|----------|------|
B|-(12)------------|----------|----------|------|
G|------------9p7--|----------|----------|------|
D|-----------------|----------|----------|------|
A|-----------------|----------|----------|------|
E|-----------------|----------|----------|------|


 [Guitar Solo]
                                ~~
   W          H    Q    E E     Q  Q  E  E       E       E
e|----------|---------------||----------10b10.5-10b10.5----|
B|----------|-----------7---||-12-----------------------12-|
G|----------|---------------||-----------------------------|
D|----------|---------------||-----------------------------|
A|----------|---------------||-----------------------------|
E|----------|---------------||-----------------------------|
    ~~~
    Q   Q  E  E    E       E
e|----------------10b10.5-12--|
B|-12--------12---------------|
G|----------------------------|
D|----------------------------|
A|----------------------------|
E|----------------------------|

    S      +S  E  e E  E    E  E  a     +e
e|-12pb14r(12)---12---10b11---12-12b14-(14)-|
B|------------------------------------------|
G|------------------------------------------|
D|------------------------------------------|
A|------------------------------------------|
E|------------------------------------------|
                                                       ~~
    E   E  E  E  a       +Q         a        +Q        W           H     E  e    Q
e|--------10-12-10b10.5-(10.5)-----10b10.5-(10.5)---|-----------|----------19---19\--|
B|-----12-------------------------------------------|-12--------|--------------------|
G|--------------------------------------------------|-----------|--------------------|
D|--------------------------------------------------|-----------|--------------------|
A|--------------------------------------------------|-----------|--------------------|
E|--------------------------------------------------|-----------|--------------------|

                ~~~~~~~~~~
    a     +Q    Q       Q   S  S e    a        +Q    E  E Q  E  E
e|-10b12-(12)--10pb11--------------|------------------------------|
B|---------------------12--10------|------------------------------|
G|----------------------------12-9-|-------------------------9-12-|
D|---------------------------------|-12b12.5-(12.5)--9-12-9-------|
A|---------------------------------|------------------------------|
E|---------------------------------|------------------------------|
                                                       ~~
    e E  E       E  E   E  E  E    e E  E  E      +Q    Q
e|------------------------------|------10-10pb12r(10)------|
B|-12---10b10.5-12--------10-12-|-12-------------------12--|
G|-----------------12--12-------|--------------------------|
D|------------------------------|--------------------------|
A|------------------------------|--------------------------|
E|------------------------------|--------------------------|
|
 [Verse]

     ~~~~
    +W            W            Wx2
e|-------------|------------||--------|
B|-(12)--------|------------||--------|
G|-------------|------------||--------|
D|-------------|------------||--------|
A|-------------|------------||--------|
E|-------------|------------||--------|
|
 |   W           +W            Wx2
e|-------------|------------||--------|
B|-------------|------------||--------|
G|-------------|------------||--------|
D|-------------|------------||--------|
A|---2---------|-(2)--------||--------|
E|-------------|------------||--------|


  
[Verse]

   Gtr I
    W                H         E      E  e E    W               H    Q  e E
e|-----------------|---------------------7---||---------------|---------7---|
B|-----------------|-----------------/7------||---------------|---------9---|
G|-----------------|-------------------------||---------------|-------------|
D|-----------------|-------------------------||---------------|-------------|
A|-----------------|-------------------------||---------------|-------------|
E|-----------------|-------------------------||---------------|-------------|

   Gtr I
   H    Q  e E   W          W          W
e|-------------|----------|----------|------|
B|---------7---|----------|----------|------|
G|-------------|----------|----------|------|
D|-------------|----------|----------|------|
A|-------------|----------|----------|------|
E|-------------|----------|----------|------|


   Gtr I
   H    Q  e E   W          W           W
e|---------7---|----------|-----------|-----------|
B|---------9---|----------|-----------|-----------|
G|-------------|----------|-----------|-----------|
D|-------------|----------|-----------|-----------|
A|-------------|----------|-----------|-----------|
E|-------------|----------|-----------|-----------|
[Outro]
                                           ~~
     W          H    Q    E E      e E  e  E  +E   E      Q
e|------------|-------------7-||---7--------------10b10.5-------|
B|------------|-----------7---||-------12-12-(12)---------------|
G|------------|---------------||--------------------------------|
D|------------|---------------||--------------------------------|
A|------------|---------------||--------------------------------|
E|------------|---------------||--------------------------------|

   Q     E  E  E       E      E         E
e|---------10-12b12.5-12pb14-10b10.5---12--|
B|------12---------------------------------|
G|-----------------------------------------|
D|-----------------------------------------|
A|-----------------------------------------|
E|-----------------------------------------|
      e E  E E  a     +E  Q.
e|--------10---12b14-(14)----------|
B|---12----------------------------|
G|---------------------------------|
D|---------------------------------|
A|---------------------------------|
E|---------------------------------|

                            ~~~~                                               ~~~
   E   E    E       S      +S   +Q     +S   +S     E      e E  a     +e  E  E  Q.
e|---------10b10.5-12b14==(14)-(14)---(14)r(12)p==10-|---12---12b14-(14)---12---------|
B|----12---------------------------------------------|------------------------12------|
G|---------------------------------------------------|--------------------------------|
D|---------------------------------------------------|--------------------------------|
A|---------------------------------------------------|--------------------------------|
E|---------------------------------------------------|--------------------------------|

      E  E  E  E  a     +e  E  E   E
e|--------10-12-12b14-(14)---12-----|
B|-----12---------------------------|
G|----------------------------------|
D|----------------------------------|
A|----------------------------------|
E|----------------------------------|

                          ~~
    E  e  a        +E   E  Q     E E     E  E a      +E   E E E E  E
e|-12-10-10b10.5-(10.5)--------------|---7---------------------------|
B|------------------------12-------7-|-----10-------------7--------7-|
G|-----------------------------------|--------9b9.5-(9.5)---7---7----|
D|-----------------------------------|------------------------9------|
A|-----------------------------------|-------------------------------|
E|-----------------------------------|-------------------------------|


                              ~~
                  |-3--|                 |-3--|  |--3--|
  E E  E  E  E  E S  S S E    Q     E  E Q    E  E  E  E
e|-7-7-10-10--9--9-9h10p9p7-|-------10\----------------10-|
B|--------------------------|-12---------------7-10-12----|
G|--------------------------|-----------------------------|
D|--------------------------|-----------------------------|
A|--------------------------|-----------------------------|
E|--------------------------|-----------------------------|


    ~~~
    Q.            E  e E a     +E   E
e|------------------------------------|
B|-12---------------10----------------|
G|-----------------------9b11-(11)----|
D|------------------------------------|
A|------------------------------------|
E|------------------------------------|


   E E        E  a      +E   E E E   e
e|-----------------------------7-----7-|
B|---------------------------7---7-----|
G|------------7--9b11--(11)------------|
D|---9---------------------------------|
A|-------------------------------------|
E|-------------------------------------|


                                                         ~~~
   Q   a      +E     E  E  E  Q       Q   a        +Q     Q.   E
e|----12b14--(14)---10-12-----------|----10b10.5-(10.5)-----------|
B|------------------------12\-------|--------------------12-------|
G|----------------------------------|-----------------------------|
D|----------------------------------|-----------------------------|
A|----------------------------------|-----------------------------|
E|----------------------------------|-----------------------------|
                                                      ~~~~
   E  E        E    E   a      +S   +S   E  E  a      +E
e|------------10---12--12b14==(14)r(12)p10-12-12b14==(14)-|
B|---12---------------------------------------------------|
G|--------------------------------------------------------|
D|--------------------------------------------------------|
A|--------------------------------------------------------|
E|--------------------------------------------------------|


  ~~~~~~~
    +Q           E   a       +E  Q    a       +E     E    E  e        e   e  e  e  e  e
e|-(14)r------------10b10.5-(10)-----10b10.5-(10)------|----19-------19--19-19-19-19-19--|
B|--------------------------------------------------12-|-12------------------------------|
G|-----------------------------------------------------|---------------------------------|
D|-----------------------------------------------------|---------------------------------|
A|-----------------------------------------------------|---------------------------------|
E|-----------------------------------------------------|---------------------------------|
                                                                           ~~~~~~
               |--3--|
   E  E        S   S S E  a     +Q.        E     a      +E   +E         E  E +H
e|-19\----------9h=10p9p7-10b12-(12)-------(7)-|-10b12==(12)r(10)--------7--7-(7)---------|
B|---------------------------------------------|------------------------------------------|
G|---------------------------------------------|------------------------------------------|
D|---------------------------------------------|------------------------------------------|
A|---------------------------------------------|------------------------------------------|
E|---------------------------------------------|------------------------------------------|
                                             ~~~~~~~~~~~~~~~~~
   Q     E   E    E   a     +E   E  E        Q           +Q       e     e   E       E
e|----------------------------------------|-----------------------------------------------|
B|----------------7--10b11-(11)-10-10pb12-|-10pb12======(10)r====10----10--10b10.5-10pb12-|
G|-------7---9----------------------------|-----------------------------------------------|
D|----------------------------------------|-----------------------------------------------|
A|----------------------------------------|-----------------------------------------------|
E|----------------------------------------|-----------------------------------------------|

    ~~~~~~~           ~~~~~~~~~~~~~~
    E      +E         Q        +S   s E Q       H              E     E  E E
e|--------------------------------------------|-----------------------------|
B|-10pb12r(10)-------10pb12===(10)r10---------|-----------------------------|
G|--------------------------------------------|---------------------------7-|
D|--------------------------------------------|----------------------9--9---|
A|--------------------------------------------|-----------------------------|
E|--------------------------------------------|-----------------------------|

                                            ~~~~
   E a     +E  E E  a     +Q         a     +Q
e|---------------7-10b12-(12)-------10b12-(12)---|
B|-------------7---------------------------------|
G|-9-9b11-(11)-----------------------------------|
D|-----------------------------------------------|
A|-----------------------------------------------|
E|-----------------------------------------------|

    ~                                ~~
   Q         E  a     +E  a     +E  Q.         W
e|-7-----------------------------------------|---------------------------|
B|----------10-------------------------------|---------------------------|
G|--------------9b11-(11)-7b7.5-(7)----------|---------------------------|
D|----------------------------------9--------|---------------------------|
A|-------------------------------------------|---------------------------|
E|-------------------------------------------|---------------------------|

                              ~~~~
   a     +E    E S S  a      +E     +Q         Q
e|---------------7---------------------------------|
B|-------------7---7-10b12==(12)---(12)r-----------|
G|-9b9.5-(9)---------------------------------------|
D|-------------------------------------------------|
A|-------------------------------------------------|
E|-------------------------------------------------|

                   ~
   H            E  E   E a     +E    E   E e E    E     E   a       +E  E
e|---------------------------------|-----7-7-----19\-------10b10.5-(10)---|
B|---------------------------------|-7------------------------------------|
G|---------------------7-9b9.5-(9)-|--------------------------------------|
D|-----------------9---------------|--------------------------------------|
A|---------------------------------|--------------------------------------|
E|---------------------------------|--------------------------------------|


   Q      a       +E  E   +E  E   S     +S  E
e|-7-----10b10.5-(10)-7---(7)-------------------|
B|----------------------------7-----------------|
G|--------------------------------9pb10r(9)p7---|
D|----------------------------------------------|
A|----------------------------------------------|
E|----------------------------------------------|

                           ~~~
   Q     S   +E.      S   +E.       +Q
e|---------------------------------------|
B|---------------------------------------|
G|-------7b9-(9)------7b9-(9)-------(9)--|
D|---------------------------------------|
A|---------------------------------------|
E|---------------------------------------|
                                                                 ~~~
   Q      a       +E  E   +E  E   S     +S  E   Q   S   +E. S   +E.   +Q
e|-7-----10b10.5-(10)-7---(7)-----------------|-----------------------------|
B|----------------------------7---------------|-----------------------------|
G|--------------------------------9pb10r(9)p7-|-----7b9-(9)-7b9-(9)---(9)---|
D|--------------------------------------------|-----------------------------|
A|--------------------------------------------|-----------------------------|
E|--------------------------------------------|-----------------------------|

                             ~
   Q     a      +E  +S  S   H
e|----------------------------------|
B|-------9b10==(10)r(9)p7-----------|
G|--------------------------9-------|
D|----------------------------------|
A|----------------------------------|
E|----------------------------------|

                         PM|
                 ~
   Q   E.    +S  H         Q     e  e   E E a     +E   E
e|-----------------------|----------------------------------|
B|---------------7-------|-----------------------------7----|
G|-----9b11-(11)---------|-------7--7-----7-9b11-(11)-------|
D|-----------------------|--------------9-------------------|
A|-----------------------|----------------------------------|
E|-----------------------|----------------------------------|

               ~~~                ~~~~         ~~                   ~~
   E   E  e E  Q    e E    a     +H         a  H         S       S  E  +H.
e|-7-----10--------10---|-12b14-(14)-------10h12------|-10b10.5---------------*|
B|---/12------12--------|-----------------------------|---------12-12-(12)----*|
G|----------------------|-----------------------------|-----------------------*|
D|----------------------|-----------------------------|-----------------------*|
A|----------------------|-----------------------------|-----------------------*|
E|----------------------|-----------------------------|-----------------------*|

                                                  ~
Suggest correction
Creating personal tab
Creating personal tab
You can edit any tab online and save it as your Personal.

You can edit, replace or remove any tab part or add personal notes – all changes will be seen only by you.

Personal tabs can be accessed anytime from any device, even offline.
Learn more »
Give kudos to tab author, rate the tab!
1 2 3 4 5
comments
print report bad tab
guest
You may want to rate the tab now too:
select rating
Wanna post a correction for this tab? Suggest correction