Oops, an error
Loading. Please wait.
We have Chord Pro version of The Thrill Is Gone.
It's the closest thing you can get to the original song and it has interactive parts. Check out the tab »
×
614 views 6 this week
3 commentsread comments
1 2 3 4 5
2 more votes to show rating
add to favorites
×
Save as Personal and add changes to this tab that will be seen only by you. Learn more ›
×
You can save this tab as Personal to edit and correct it or add notes. All changes will be seen only by you. Learn more »
launch autoscroll
font size
0
reset
guitar tuner
backing track
0:00
0:00
edit
Autoscroll
slow
fast
+/-
esc
set tempo
stop
Author
Difficulty
BB King
The Thrill is gone
(Album Live at the BBC)

Bass Tabs

Tuning : EADG
Tempo: 110 bpm 

Key signature: C

Verse1: 00:01
G|-------------------|-------------------|-
D|-------------------|-------------------|-
A|-3g-----------1r---|-3h3g---------1-2/-|-
E|------0h-3-3-------|-------0h-3-3------|-
The thrill is gone

G|-------------------|-------------------|-
D|-------------------|--------------1-2/-|-
A|-3h3g---------1r---|-3g----1-2-3-------|-
E|-------0h-3-3------|-------------------|-
The thrill is gone away

G|-------------------|-------------------|-
D|-3h3g---------1r---|-3h3g---------1----|-
A|-------2h-3-3------|--------1-2-3---1--|-
E|-------------------|-------------------|-
The thrill is gone baby

G|-------------------|-------------------|-
D|-------------------|-------------------|-
A|-3g-----------1r---|-3h3g--------------|-
E|-------0h-3-3------|------0h-3-3-1-3-4-|-
The thrill is gone away

G|-------------------|-------------------|-
D|----6-6--3-6-5-5---|-5--6--5-----------|-
A|-------------------|----------5--6-----|-
E|-4g----------------|-------------------|-
You know you done me wrong baby

G|-------------------|-------------------|-
D|-------------------|-------------------|-
A|-3g-----------1r---|------1br----------|-
E|------0h-3-3-------|-3p----------------|-
And you'll be sorry someday


Verse2: 00:34
G|-------------------|-------------------|-
D|-------------------|-------------------|-
A|-3g-----------1r---|-3h3g---------1-2/-|-
E|------0h-3-3-------|-------0h-3-3------|-
The thrill is gone

G|-------------------|-------------------|-
D|-------------------|--------------1-2/-|-
A|-3h3g---------1r---|-3g----1-2-3-------|-
E|-------0h-3-3------|-------------------|-
It's gone away from me

G|-------------------|-------------------|-
D|-3h3g---------1r---|-3h3g---------1----|-
A|-------2h-3-3------|--------1-2-3---1--|-
E|-------------------|-------------------|-
The thrill is gone baby

G|-------------------|-------------------|-
D|-------------------|-------------------|-
A|-3g-----------1r---|-3h3g--------------|-
E|-------0h-3-3------|------0h-3-3-1-3-4-|-
The thrill is gone away from me

G|-------------------|-------------------|-
D|----6-6--3-6-5-5---|-5--6--5-----------|-
A|-------------------|----------5--6-----|-
E|-4g----------------|-------------------|-
Although, I'll still live on

G|-------------------|-------------------|-
D|-------------------|-------------------|-
A|-3g-----------1r---|------1br----------|-
E|------0h-3-3-------|-3p----------------|-
But so lonely I'll be

Verse3: 01:08
G|-------------------|-------------------|-
D|-------------------|-------------------|-
A|-3g-----------1r---|-3h3g---------1-2/-|-
E|------0h-3-3-------|-------0h-3-3------|-
You know I'm free, free now baby

G|-------------------|-------------------|-
D|-------------------|--------------1-2/-|-
A|-3h3g---------1r---|-3g----1-2-3-------|-
E|-------0h-3-3------|-------------------|-
I'm free from your spell

G|-------------------|-------------------|-
D|-3h3g---------1r---|-3h3g---------1----|-
A|-------2h-3-3------|--------1-2-3---1--|-
E|-------------------|-------------------|-
Oh I'm free, free, free now

G|-------------------|-------------------|-
D|-------------------|-------------------|-
A|-3g-----------1r---|-3h3g--------------|-
E|-------0h-3-3------|------0h-3-3-1-3-4-|-
I'm free from your spell

G|-------------------|-------------------|-
D|----6-6--3-6-5-5---|-5--6--5-----------|-
A|-------------------|----------5--6-----|-
E|-4g----------------|-------------------|-
And now that it's all over

G|-------------------|-------------------|-
D|-------------------|-------------------|-
A|-3g-----------1r---|------1br----------|-
E|------0h-3-3-------|-3p----------------|-
All I can do is wish you well


Instrumental: 01:42 (Play X4 with impetus till outro)
G|-------------------|-------------------|-
D|-------------------|-------------------|-
A|-3g-----------1r---|-3h3g---------1-2/-|-
E|------0h-3-3-------|-------0h-3-3------|-

G|-------------------|-------------------|-
D|-------------------|--------------1-2/-|-
A|-3h3g---------1r---|-3g----1-2-3-------|-
E|-------0h-3-3------|-------------------|-

G|-------------------|-------------------|-
D|-3h3g---------1r---|-3h3g---------1----|-
A|-------2h-3-3------|--------1-2-3---1--|-
E|-------------------|-------------------|-

G|-------------------|-------------------|-
D|-------------------|-------------------|-
A|-3g-----------1r---|-3h3g--------------|-
E|-------0h-3-3------|------0h-3-3-1-3-4-|-

G|-------------------|-------------------|-
D|----6-6--3-6-5-5---|-5--6--5-----------|-
A|-------------------|----------5--6-----|-
E|-4g----------------|-------------------|-

G|-------------------|-------------------|-
D|-------------------|-------------------|-
A|-3g-----------1r---|------1br-----3g---|-
E|------0h-3-3-------|-3p----------------|-


Outro: 03:50 (repeat)
G|-------------------|-------------------|-
D|-----5p------------|-----5p------------|-
A|-3g-----3r-----1-2-|-3g------3r-----1g-|- xx
E|------------3s-----|-------------3s----|-

G|-------------------|-------------------|-
D|-----5p------------|-------------5p----|-
A|-3g------3r-----1g-|-3g--5b--6r--------|-
E|-------------3s----|-------------------|-

G|-------------------|-------------------|-
D|-----5p------------|-----5p------------|-
A|-3g------3r-----1g-|-3g------3r-----1g-|- xx 
E|-------------3s----|-------------3s----|-

G|-------------------|-------------------|-
D|-----5p------------|-------------5p----|-
A|-3g------3r-----1g-|-3g--5b--6r--------|-
E|-------------3s----|-------------------|-

Soft ending:
G|-------------------|-------------------|-
D|-----5p------------|-------------5p----|-
A|-3g------3r-----1g-|-3g--5b--6r--------|-
E|-------------3s----|-------------------|-


End: 04:57


Tablature Legend ----------------  
| S  slap 
| P  pop 
| x  mute note 
| /  slide up 
| \  slide down 
| h  hammer-on 
| p  pull-off 
| g  grace note 
| ~  vibrato 
| ^  brush up
| >  Link to next note

            
            
Suggest correction
Creating personal tab
Creating personal tab
You can edit any tab online and save it as your Personal.

You can edit, replace or remove any tab part or add personal notes – all changes will be seen only by you.

Personal tabs can be accessed anytime from any device, even offline.
Learn more »
Give kudos to tab author, rate the tab!
1 2 3 4 5
comments
print report bad tab
3 comments total.
0 reply
Bruno Frenchy 4,686 Aug 05, 2015 09:05 AM

This version is "BBC Live" version... 04:57 mn only in C Major... and one verse missing for broadcast reason I suppose... Anyway, this is not the "Clapton and Friends" version... (which i might tab in a near future)...
So enjoy and rate !!
Thanks,
Bruno

Verse missing form that live version:
The thrill is gone
It's gone away for good
The thrill is gone baby
It's gone away for good
Someday I know I'll be open armed baby
Just like I know a good man should

0 reply
Guy77210 10 Aug 08, 2015 03:08 AM

Super... Belle tabblature pour cette chanson de BB King... Merci;;; Thank you

0 reply
sheila scotty 16 Aug 18, 2015 01:57 PM

Lovely tribute to a great and talented musician... Thanks !

guest
You may want to rate the tab now too:
select rating
Wanna post a correction for this tab? Suggest correction