Oops, an error
Loading. Please wait.

The Night Begins To Shine intro tab

by B.E.R.
3,002 views 141 this week
3 commentsread comments
1 2 3 4 5
x 6
add to favorites
×
Save as Personal and add changes to this tab that will be seen only by you. Learn more ›
×
You can save this tab as Personal to edit and correct it or add notes. All changes will be seen only by you. Learn more »
launch autoscroll
font size
0
reset
how to read this tab
guitar tuner
edit
Autoscroll
slow
fast
+/-
esc
set tempo
stop
Author
Difficulty
-------------------------------------------------------------------------------
                             The Night Begins to Shine - B.E.R.
-------------------------------------------------------------------------------
Tabbed by: 123kcjoseph
E-mail: lisztjoseph@yahoo.com.hk

Tuning:

[Intro]
e|7-----7-----7----- 5-----5-----5----- 7-----7-----7-8-7--|
B|--8-5---8-5---8-5- --7-----7-----7--- --8-5---8-5------8-|
G|------------------ ----7-----7-----7- -------------------|
D|------------------ ------------------ -------------------|
A|------------------ ------------------ -------------------|
E|------------------ ------------------ -------------------|

e|5-----5-----5-7- 0----------------------------------------------------------|
B|--7-----7------- -----------------------------------------------------------|
G|----7-----7----- -----------------------------------------------------------|
D|---------------- -----------------------------------------------------------|
A|---------------- -----------------------------------------------------------|
E|---------------- -----------------------------------------------------------|

            
            
Suggest correction
Creating personal tab
Creating personal tab
You can edit any tab online and save it as your Personal.

You can edit, replace or remove any tab part or add personal notes – all changes will be seen only by you.

Personal tabs can be accessed anytime from any device, even offline.
Learn more »
comments
print report bad tab
3 comments total.
+2 reply
bryanartero4 20 Apr 03, 2017 06:32 PM

you should show more detail
such when it says "the night begins to shine

+2 reply
maroon.marauder2 10 Apr 08, 2017 11:31 AM

that would be the chorus

0 reply
zagamer989 10 Jul 11, 2017 06:50 AM

i want for ukulele tabs pls

guest
You may want to rate the tab now too:
select rating
Wanna post a correction for this tab? Suggest correction