Oops, an error
Loading. Please wait.

Estar A Espera Ou Procurar Tab

2,625 views 1 this week
1 commentread comment
1 2 3 4 5
please rate
add to favorites
launch autoscroll
font size
0
reset
how to read this tab
guitar tuner
Autoscroll
slow
fast
+/-
esc
set tempo
stop
Help us to improve Ultimate-Guitar.com Take our survey!
×
Author
Difficulty
Capo
novice
3rd fret
"Estar a espera ou procurar" by portuguese artist B Fachada.
Capo 3rd fret

Video: "http://videos.sapo.pt/nGsFFfAUIZ6DVllnvW6U"
Everything here is my own take on this song. I'm unsure about the last chord of the chorus.


VERSE
|--0---0---0---0------------------|
|--0---0---0---0------------------|
|--0---0---0---0------------------|
|------5---2---4------------------|
|--2---4---3---5------------------|
|------5---3---5------------------|

CHORUS
|--0---0---0---0---|
|--0---0---0---0---|
|--0---0---0---0---|
|--2---1---0---5---|
|--3---2---2---4---|
|--3---2-------5---|
Suggest correction
Give kudos to tab author, rate the tab!
1 2 3 4 5
comments
print report bad tab
1 comment total.
0 reply
WingsMark 589 wrote on November 13 2012, 04:30 pm

VERSE
|--0---0---0---0-|
|--0---0---0---0-|
|--0---0---0---0-|
|------5---2---5-|
|--2---4---3---4-|
|------5---3---5-|

|--0---0---0---0-|
|--0---0---0---0-|
|--0---0---0---0-|
|------5---2---4-|
|--2---4---3---5-|
|------5---3---5-|

Chorus:
|--0---0---0---0---|
|--0---0---0---0---|
|--0---0---0---0---|
|--0---1---0---5---|
|--2---2---2---4---|
|--3---2-------5---|

guest
You may want to rate the tab now too:
select rating
Wanna post a correction for this tab? Suggest correction