Oops, an error
Loading. Please wait.

Kit De Prestidigitacao tab

3,088 views 9 this week
1 commentread comment
1 2 3 4 5
2 more votes to show rating
add to favorites
×
Save as Personal and add changes to this tab that will be seen only by you. Learn more ›
×
You can save this tab as Personal to edit and correct it or add notes. All changes will be seen only by you. Learn more »
launch autoscroll
font size
0
reset
how to read this tab
guitar tuner
edit
Autoscroll
slow
fast
+/-
esc
set tempo
stop
Author
Difficulty
"Kit de prestidigitacao" by portuguese artist B Fachada.

Capo up high, according to your own voice. I believe he uses it in the 10th fret

VERSE
|-----0------0---|
|-----0------0---|
|-----0------0---|
|---1/2----2/4---|
|---2/3----3/5---|
|---2/3----3/5---|

CHORUS
|-----0------0------0------0---|
|-----0------0------0------0---|
|-----0------0----0-0----0-0---|
|---0-0----0-0----1/2----3/4---|
|---1/2----3/4----2/3----4/5---|
|---2/3----4/5-----------------|

Lyrics here: http://letras.terra.com.br/b-fachada/1650114/
Video here: http://www.youtube.com/watch?v=pqZqUrzqk2k

Official B Fachada website: http://www.myspace.com/bfachada
Suggest correction
Creating personal tab
Creating personal tab
You can edit any tab online and save it as your Personal.

You can edit, replace or remove any tab part or add personal notes – all changes will be seen only by you.

Personal tabs can be accessed anytime from any device, even offline.
Learn more »
Give kudos to tab author, rate the tab!
1 2 3 4 5
comments
print report bad tab
1 comment total.
0 reply
tiagobatata18 54 Oct 14, 2016 09:30 PM

you can play the xylophone intro easily on the B string, like this:

e|---------------------|----------------------|
B|--10-7-10-12-7---10--|--10-7-10-12-7--------|
G|---------------9-----|---------------9---9--|
D|---------------------|-----------------11---|
A|---------------------|----------------------|
E|---------------------|----------------------|

the notes are without capo, but shouldn't change with a capo up to the 7th fret, which I think he uses live, I'm not sure

guest
You may want to rate the tab now too:
select rating
Wanna post a correction for this tab? Suggest correction