Oops, an error
Loading. Please wait.

Monogamia Tab

3,195 views 15 this week
no commentswrite comment
1 2 3 4 5
please rate
add to favorites
launch autoscroll
font size
0
reset
how to read this tab
guitar tuner
Tab Pro tools
  • play this tab
  • loop segment
  • change instrument
  • show fretboard
  • metronome
×
Best way to learn
"Monogamia"
Autoscroll
slow
fast
+/-
esc
set tempo
stop
Contributor
"Monogamia" by portuguese artist B Fachada.
Capo according to your own voice, he uses in the third.
Everything here is my own take on this song. Enjoy.

Intro / Bridge
|---0---0---0---0-------|
|---1---1---0---0-------|
|---0---0---0---0-------|
|---2---2---0---0-------|
|---3---0---2---2-------|
|---3-------3---3-1-0---|

VERSE
|---0---0---0---0---0---0---0---0----|
|---1---1---1---0---0---1---1---0----|
|---0---0---2---0---0---0---2---0----|
|---2---2---3-------0---2---3--------|
|---3---0---3---2---2---0---3---2----|
|---3-----------3---------------3----|

CHORUS
|---0---0---|---0---0---0---0-----0---0---0---0---|
|---1---1---|---1---0---1---0-----0---1---1---1---|
|---0---0---|---0---0---2---0-----0---0---2---0---|
|---2---2---|---2---0---3---0-----0---2---3---2---|
|---3---3---|---0---2---3---2-----2---0---3---3---|
|---3---3---|-------0-------3-----0-----------3---|

Video here: http://www.youtube.com/watch?v=DcbczZBl-w4&feature=related

B Fachada official website: http://www.myspace.com/bfachada

Lyrics: 
Na hora de se apaixonar
A Maria escolhe bem
E como eu escolho assim tambem
Resolvemos experimentar

Mas o teu gosto por mandar
Ai o teu tom cruel de mae
E bom para a cruz e para o desdem
E bom para o karma desbundar
E so e mau para o nosso lar

E como eu ja nao tenho idade
P'ros caprichos da Maria
Vou deixar a monogamia 
E dedicar-me a castidade

Enquanto um gajo tenta em vao
Nao apanhar por coisas vas
Vais dando logo pelas manhas
Miminhos teus do coracao

Mas como o sol turva a visao
Nao ves as deusas, que pagas,
Te dao um quilo de macas
Para te lancar na perdicao
Vem a discordia rir-se ou nao

E como a minha pequena vontade
Cada vez mais se atrofia
Vou deixar a monogamia
E dedicar-me a castidade

Quando um dia o que eu ouvi
Foi mais do que eu pude entender
Nao sobrou nada que fazer
A solucao nao estava ali

Arrumei-me e fugi
Falta-te um palmo para mulher
E se tu nao o queres crescer
E melhor partir sem ti
Ja pensei, decidi

Porque apesar de ser verdade
Que sem ti e mau o dia
Vou deixar a monogamia
E dedicar-me a castidade
comments
We did not receive enough feedback on this tab! Please rate:
print report bad tab
1 2 3 4 5
I want to post or [tab]
guest
You may want to rate the tab now too:
select rating
Please do not post tabs as comments. Select "correction" instead!