Oops, an error
Loading. Please wait.

Somebody Done Somebody Wrong Bass Tab

4,543 views 18 this week
no commentswrite comment
1 2 3 4 5
accurate
x 1
add to favorites
launch autoscroll
font size
0
reset
guitar tuner
Tab Pro tools
  • play this tab
  • loop segment
  • change instrument
  • show fretboard
  • metronome
Autoscroll
slow
fast
+/-
esc
set tempo
stop
Contributor
Difficulty
novice
(Please note that I'm not 100% sure of these chords. I used someone else's tab as 
a guide to put chords in while I tabbed the bass line, which I'm satisfied with. 
If someone can ensure the chords are correct or offer corrections, I'd be grateful.)

[INTRO] (Initially sing strums each measure)
  E                 A
    It's lonely out tonight
          B7~~~~~~~~~~~~~~~~~~~                  E            
  And the feeling just got right for a brand new love song
  A~~~~~~~~~~~~~           E      
    Somebody done somebody wrong song
                                                                (Start strumming)
  E        A        B7~~~~~~~~~~~~~~  E        A~~~~~~~~~~~~~~~~ E        E
G:--------|--------|--------|--------|--------|--------|--------|--------|--------|
D:--------|--------|--------|--------|--------|--------|--------|--------|--------|
A:--------|--------|--------|--------|--------|--------|--------|--------|--------|
E:--------|--------|--------|--------|--------|--------|--------|--------|--------|

[CHORUS]
  E               Emaj7             E7         E7            A          A  
  Hey   Won't you play    Another     Somebody done somebody wrong song
              E              E                 F#m   B7                 E
  And make me feel at home     While I miss my baby     While I miss my baby

  E        Emaj7    E7       E7       A        A        E        E
G:--------|--------|--------|--------|--------|--------|--------|--------|
D:--------|--------|--------|--------|----2---|--------|--------|--------|
A:----2---|----2---|----2---|--------|0-------|0---0---|----2---|----2---|
E:0-------|0-------|0-------|0-0-2-4-|--------|------2-|0-------|0-----4-|

  F#m      B7       E        E
G:--------|--------|--------|--------|
D:--------|--------|--------|------1-|
A:----4---|2---2---|----2---|--2-4---|
E:2-------|--------|0-------|0-------|

[VERSE]
     E                 E      G#      G#7     C#7         C#7             F#sus4 F#
  So please   Play for me   A sad melody   So sad that it makes everybody cry -y-y
    B7           B7                  E                C#7
  A real hurtin' song        About a love that's gone wrong
  F#                    F#7      B      B7
 'Cause I don't want to cry all alone

  E        E        G#       G#7      C#7      C#7      F#sus4   F#
G:--------|--------|--------|--------|--------|--------|--------|--------|
D:--------|--------|--------|--------|--------|----6---|--------|--------|
A:----2---|--------|----6---|----6---|4-------|4-----4-|----4---|------0-|
E:0-------|0---2-3-|4-------|4-----4-|----4---|--------|2-------|2---4---|

  B7       B7       E        C#7      F#       F#7      B        B7
G:--------|--------|--------|--------|--------|--------|--------|--------|
D:--------|------1-|2-------|--------|--------|--------|----4---|------1-|
A:2-------|2---4---|----2---|4-------|----4---|------0-|2-------|2-2-4---|
E:----2---|--------|--------|----4---|2-------|2---4---|--------|--------|

[CHORUS]
  E               Emaj7             E7         E7            A          A  
  Hey   Won't you play    Another     Somebody done somebody wrong song
              E              E                 F#m   B7                 E
  And make me feel at home     While I miss my baby     While I miss my baby

  E        Emaj7    E7       E7       A        A        E        E
G:--------|--------|--------|--------|--------|--------|--------|--------|
D:--------|--------|--------|--------|----2---|--------|--------|--------|
A:----2---|----2---|----2---|--------|0-------|0---0---|----2---|----2---|
E:0-------|0-------|0-------|0---2-4-|--------|------2-|0-------|0-----4-|

  F#m      B7       
G:--------|--------|
D:--------|------1-|
A:----4---|2-2-4---|
E:2-------|--------|

[INSTRUMENTAL]
  E        Emaj7    E7       E7       A        A        E        E
G:--------|--------|--------|--------|--------|--------|--------|--------|
D:--------|--------|--------|--------|----2---|--------|--------|------1-|
A:----2---|----2---|----2---|--------|0-------|0---0---|----2---|--2-4---|
E:0-------|0-------|0-------|0-0-2-4-|--------|------2-|0-------|0-------|

[VERSE]
     E                 E      G#      G#7     C#7         C#7             F#sus4 F#
  So please   Play for me   A sad melody   So sad that it makes everybody cry -y-y
    B7           B7                  E                C#7
  A real hurtin' song        About a love that's gone wrong
  F#                    F#7      B      B7
 'Cause I don't want to cry all alone

  E        E        G#       G#7      C#7      C#7      F#sus4   F#
G:--------|--------|--------|--------|--------|--------|--------|--------|
D:--------|--------|--------|--------|--------|----6---|--------|--------|
A:----2---|--------|----6---|----6---|4-------|4-----4-|----4---|------0-|
E:0-------|0---2-3-|4-------|4-----4-|----4---|--------|2-------|2---4---|

  B7       B7       E        C#7      F#       F#7      B        B7
G:--------|--------|--------|--------|--------|--------|--------|--------|
D:--------|------1-|2-------|--------|--------|--------|----4---|------1-|
A:2-------|2---4---|----2---|4-------|----4---|------0-|2-------|2-2-4---|
E:----2---|--------|--------|----4---|2-------|2---4---|--------|--------|

[CHORUS]
  E               Emaj7             E7         E7            A          A  
  Hey   Won't you play    Another     Somebody done somebody wrong song
              E              E                 F#m   B7                 
  And make me feel at home     While I miss my baby     While I miss my ...

  E        Emaj7    E7       E7       A        A        E        E
G:--------|--------|--------|--------|--------|--------|--------|--------|
D:--------|--------|--------|--------|----2---|--------|--------|--------|
A:----2---|----2---|----2---|--------|0-------|0---0---|----2---|----2---|
E:0-------|0-------|0-------|0-0-2-4-|--------|------2-|0-------|0-----4-|

  F#m      B7       
G:--------|--------|
D:--------|--------|
A:----4---|2-0-----|
E:2-------|----4-2-|

[CODA] (Repeat & fade)
  E               Emaj7             E7         E7            A          A  
  Baby  Won't you play    Another     Somebody done somebody wrong song
              E              E                 F#m   B7                 
  And make me feel at home     While I miss my baby     While I miss my ...

  E        Emaj7    E7       E7       A        A        E        E
G:--------|--------|--------|--------|--------|--------|--------|--------|
D:--------|--------|--------|--------|----2---|--------|--------|--------|
A:----2---|----2---|----2---|--------|0-------|0---0---|----2---|----2---|
E:0-------|0-------|0-------|0---2-4-|--------|------2-|0-------|0-----4-|

  F#m      B7       
G:--------|--------|
D:--------|--------|
A:----4---|2-0-----|
E:2-------|----4-2-|


Tabbed by Michael Oxner
moxner@nbnet.nb.ca
September 23, 2011
comments
We did not receive enough feedback on this tab! Please rate:
print report bad tab
1 2 3 4 5
I want to post or [tab]
guest
You may want to rate the tab now too:
select rating
Please do not post tabs as comments. Select "correction" instead!