Oops, an error
Loading. Please wait.
We have Chord Pro version of Airplanes.
It's the closest thing you can get to the original song and it has interactive parts. Check out the tab »
×
by B.o.B
4,203 views 1 this week
no commentswrite comment
1 2 3 4 5
1 last vote to show rating
add to favorites
×
Save as Personal and add changes to this tab that will be seen only by you. Learn more ›
×
You can save this tab as Personal to edit and correct it or add notes. All changes will be seen only by you. Learn more »
launch autoscroll
font size
0
reset
guitar tuner
edit
Autoscroll
slow
fast
+/-
esc
set tempo
stop
Author
Difficulty
Based on Harry Hopkinson's tab, but I tried to simplify it a little bit.

This tab is based on the full version featuring both Hayley Williams and Eminem. But it 
be used for either as the version without Eminem, because Eminem's part is basically an 
You just play the Verse, Chorus, etc. where you would need to...

So don't worry too much about what version it is for :)
Happy playing!

Intro (0:10)

| ----------------------------------------------|
| ----------------------------------------------|
|-9-9-9--9-9-9--9 \ 7-5-5-5 / 12-12-12--12-12---|  x3
| ----------------------------------------------|

| ----------------------------------------------|
| ----------------------------------------------|
|-9-9-9--9-9-9--9 \ 7-5-5-5 / 12----------------|
| ----------------------------------------------|


Pre- Verse

|-------------------|
|-------------------|
| -9~--9 \ 7-5~-----|  x 4
|----------------5~-|


Verse

|-------------------|
|-------------------|
| -9~--9 \ 7-5~-----|  x 8
|----------------5~-|


Chorus

|---------------------------------------------|
|---------------------------------------------|
| -9-9-9--9-9-9--9 \ 7-5-5-5-5----------------|  x 4
|------------------------------5-5-5-5--------|


Verse

|------------------|
|------------------|
| -9~--9 \ 7-5~----|  x 8
|---------------5~-|


Chorus

|---------------------------------------------|
|---------------------------------------------|
| -9-9-9--9-9-9--9 \ 7-5-5-5-5----------------|  x 4
|------------------------------5-5-5-5--------|


Bridge - no bass


**Eminem enters here**

|------------------|
|------------------|
| -9~--9 \ 7-5~----|  x 12
|---------------5~-|


Chorus

|---------------------------------------------|
|---------------------------------------------|
| -9-9-9--9-9-9--9 \ 7-5-5-5-5----------------|  x 4
|------------------------------5-5-5-5--------|


Outro - play until music fades out

| ----------------------------------------------|
| ----------------------------------------------|
|-9-9-9--9-9-9--9 \ 7-5-5-5 / 12-12-12--12-12---|
| ----------------------------------------------|
Suggest correction
Creating personal tab
Creating personal tab
You can edit any tab online and save it as your Personal.

You can edit, replace or remove any tab part or add personal notes – all changes will be seen only by you.

Personal tabs can be accessed anytime from any device, even offline.
Learn more »
Give kudos to tab author, rate the tab!
1 2 3 4 5
comments
print report bad tab
guest
You may want to rate the tab now too:
select rating
Wanna post a correction for this tab? Suggest correction