Oops, an error
Loading. Please wait.

Camarín Tab

1,358 views 1 this week
no commentswrite comment
1 2 3 4 5
3 more votes to show rating
add to favorites
launch autoscroll
font size
0
reset
how to read this tab
guitar tuner
Autoscroll
slow
fast
+/-
esc
set tempo
stop
Help us to improve Ultimate-Guitar.com Take our survey!
×
Author
babasonicos - camarin

any suggestion?: luchiviola@hotmail.com

intro:
e--2-2-2-2-2-2--2-2-2-2----2-2-2-2-2-2--2-2-2-2--|
B--3-3-2-2-2-2--2-2-2-2----3-3-2-2-2-2--2-2-2-2--|
G--2-2-2-2-0-0--0-0-0-0----2-2-2-2-0-0--0-0-0-0--|
D------------------------------------------------|
A------------------------------------------------|
E------------------------------------------------|

      D					G
Tan freak, tan freak, tan freak y tan popular
	D             G
quiero ser...
      D					G
Tan freak, tan freak, tan freak y tan popular
	D
quiero ser...         G
	C	     		  Em
en el éxtasis del flash, con la estrella omnisexual
	C			F#
y el glamour acomodado a la lujuria de hotel


      D					G
Tan freak, tan freak, tan freak y tan popular
	D
quiero ser...
      D					G
Tan freak, tan freak, tan freak y tan popular
	C		     Em
psicodélica alborada con amantes entrenadas
	C			     F#
preguntándome en silencio en que ciudad estaré.

 Bm			  F#m
desperté con odio y resquemor
			G
la sombra de la frustración
		  E
se sierne sobre mi cara
Bm			F#m
resentido y agrio sin porque
			     G
fui recordando el drama que soñé
  F#
soñé ser critico de rock


[repite intro] + riff1

      D					G
Tan freak, tan freak, tan freak y tan popular
	D
quiero ser...
      D					G
Tan freak, tan freak, tan freak y tan popular
	D
quiero ser...
	C
si queres un empujón
	  Em
te invito a mi camarín
	C		    F#
con hermosas mujeres que regalan desnudez


 Bm			  F#m
desperté con odio y resquemor
			G
la sombra de la frustración
		  E
se sierne sobre mi cara
Bm			F#m
resentido y agrio sin porque
			     G
fui recordando el drama que soñé
  F#		      Bm
soñé ser critico de rock

e--2--2---2--2---2--2---3-2---0--2--0----2--2---2--2---2--2---3-2---0--2--0-|
B--3---3--2---2--1---1--3-3---0--2--2----3---3--2---2--1---1--3-3---0--2--2-|
G--2-2----2-2----2-2----3-3---0--0--2----2-2----2-2----2-2----3-3---0--0--2-|
D-----------------------------2--0--2-------------------------------2--0--2-|
A-----------------------------2--2--0-------------------------------2--2--0-|
E-----------------------------0--3------------00--------------------0--3----|
ser el vapor de fantasías no me dejara llorar
la fiesta que nunca termina y la amistad artificial
pobre infeliz nunca descansar


Riff3
tan freak, tan freak, tan freak y tan popular
quiero ser...
tan freak, tan freak, tan freak y tan popular
quiero ser...
tan freak, tan freak, tan freak y tan popular
quiero ser...
tan freak, tan freak, tan freak y tan popular
quiero ser...
Suggest correction
Give kudos to tab author, rate the tab!
1 2 3 4 5
comments
print report bad tab
guest
You may want to rate the tab now too:
select rating
Wanna post a correction for this tab? Suggest correction