Oops, an error
Loading. Please wait.

El Colmo Tab

version 1
version 1

Whole song

Interactive

68 views 1 this week
no commentswrite comment
1 2 3 4 5
please rate
add to favorites
launch autoscroll
font size
0
reset
how to read this tab
guitar tuner
Tab Pro tools
  • play this tab
  • loop segment
  • change instrument
  • show fretboard
  • metronome
Autoscroll
slow
fast
+/-
esc
set tempo
stop
bueno sha vi que hay muxa competencia en esta rola pero estoy seguro
que la mia es la mejor aparte de mas completa o no? califiken

io digo que el riff va en 2 guitar por que si lo transportan se va
a escuchar cortado por muy bien que sepan tokar)

INTRO:
6]-------------------------------------------------
5]-------------------------------------------------
4]-------------------------------------------------
3]----2------2----------------2--------------2-----    x2
2]---2------2-----9/10-------3-----9/10-----3------
1]--4---2--4---2------12----5---4------12--5--4-4/5


importante¡¡ aki van 2 guitar una es con punteo y la otra es acompañando
el punteo es el sig y va con los mismos tiempos y´pisadas

        F#m     -      Bm    -    F#m     -      D
6]--2------2-------------------2-----2-------------------
5]---4------4-----2-----2-------4-----4------------------
4]-------4-----4---4--4--4--4------4-----4--0------------
3]------2-----2------4-----4------2-----2----2-----2--2--
2]-----2-----2------3-----3------2-----2-------3--3--3-3-
1]--------------------------------------------2--0--2----

            A
6]----------------------
5]----------------------
4]----------------------
3]--0/1-0/1-0/1-0/1-0/1-
2]----------------------
1]-----0---0-------0---0


F#m                            Bm
Quiero tentar el abismo y a la muerte estafar

F#m
volvamos a cero, borremoslo todo

     Bm                                       A(solo rasgeo hacia Abajo)
y festejemos si mañana me despierto sobrio y feliz


la guitar del punteo va con este riff, empieza y akaba con el coro en todos
6]------------------------------
5]------------------------------
4]------------------------------
3]--0/1-0/1-0/1-0/1-0/1-0/1-0/1-
2]------------------------------
1]----0----0-------0---0-------0


          A             F#m
Por eso canción llévame lejos

       D                  E
donde nadie se acuerde de mi

       C#m                   F#m
quiero ser el murmullo de alguna ciudad

        D          E
que no sepa quien soy


F#m                              Bm
Yo daría hasta mi sueño por ver la farsa fallar

F#m
perdamos el centro, quememoslo todo

      Bm                                         A(iwal que el otro)
y pediremos que mañana nadie venga a hacerme cumplir


         A               F#m
Por eso canción llévame lejos

       D                  E
donde nadie se acuerde de mi

       C#m                   F#m
quiero ser el murmullo de alguna ciudad

        D          E
que no sepa quien soy


*de new el intro

esta estrofa no lleva el punteo solo un rasgeo hacia abajo en kada pisada)


F#m                                     Bm
Cambio todo por el don que hace a las mujeres reir

F#m
el mundo de ellas, me hunde en sus huellas

     Bm                                        A
y roguemos que mañana me convierta en otro infeliz


         A               F#m
Por eso canción llévame lejos

       D                  E
donde nadie se acuerde de mi

       C#m                   F#m
quiero ser el murmullo de alguna ciudad

        D          E
que no sepa quien soy


A                F#m
Canción llévame lejos

       D                  E
donde nadie se acuerde de mi

       C#m                   F#m
quiero ser el murmullo de alguna ciudad

        D          E
que no sepa quien soy

saludos a mi kuate el yisus y el pp que con ellos la toke hace poko
jeje
saludos a la banda FROYD q se rifan chingon en el tako estudio
y un mega besote a mi novia karina que por ella conoci a los fabulosos
BABASONICOSSS¡¡¡¡¡yea
comments
We did not receive enough feedback on this tab! Please rate:
print report bad tab
1 2 3 4 5
I want to post or [tab]
guest
You may want to rate the tab now too:
select rating
Please do not post tabs as comments. Select "correction" instead!