Oops, an error
Loading. Please wait.

El Loco Tab

version 1
version 1

Whole song

Interactive

82 views 9 this week
no commentswrite comment
1 2 3 4 5
please rate
add to favorites
launch autoscroll
font size
0
reset
how to read this tab
guitar tuner
Tab Pro tools
  • play this tab
  • loop segment
  • change instrument
  • show fretboard
  • metronome
Autoscroll
slow
fast
+/-
esc
set tempo
stop
ESTE ES EL PUNTEO DE ESTA ROLA. LOS OTROS PUNTEOS QUE HAY AQUI EN EL ATAME;

LA NETA, ESTAN INCOMPLETOS.
 

INTRO...
                                      /esto es rapido/
e--------------------------------------------------------
b-------------------------------------7-5------5---------
g----------------------------------------6-4-6--6--6-4--4
D---------------2--2-4-6-4-4--2-4-6-4--------------------
L-0-0-2-0-2-4-4---4----------4---------------------------
E--------------------------------------------------------

Ahora si, exactamente al finalizar el ultimo punto, comienza con la frase 'Soy victima de ...'

Despues en la parte de 'Como no logro matarme, me regalo...'

va:

e----------------------------
b----------7-5-----5---------
g-------------6-4-6-6-6-4-4-4
D---2-4-6-4------------------
L--4-------------------------
E----------------------------

Nota: Esta parte del punteo, inicia exactamente cuando se escucha 
el 'Como no logro matarme...'

Ahora bien.


Despues del primer coro, va una serie de punteos, muy espaciados:


g-------------------------------------------------------
D------------------------------4-2--4--4-2---4--2h4-4-2-
L-0--4-4------4-2/2---4h2-0--0------------4-2----------4
E--------2---2-------2----------------------------------


g----------------------
D----------------------
L-4-2--2h4-2--2h4-2-0-0
E--------------------2-

Lo de arriba finaliza antes de que empiece el segundo coro.


Despues del ultimo coro, dice: 'Siento el fulgor y quiero entrar...'

hay una parte que hacen los metales, que es así:

e---------
b-----8-10      se escucha este, y una sombra identica,
g--7-9----         pero con menor intensidad
D---------

y enseguida se escucha

e--------
b-----8--  y es igual, dos veces, pero la primera,
g--7-9--9      com mayor intensidad.
D--------

Tambien se escucha casi al final, una parte de los metales que va así:

e--9-7-5h7-5--  x2
b-------------

Y aqui es el final con la frase: 'soy victima de un Dios...'
Entramos donde dice 'fragil temperamental'.


e--------------------------------
b-------------7-5------5---------
g----------------6-4-6--6--6-4--4
D-4/--2-4-6-4--------------------
L----4---------------------------
E--------------------------------


Aqui acaba la rola.

Pues sale, espero que les sirva de algo, todo esto se hace con
una segunda guitarra.

ATTE. JUANJO...
comments
We did not receive enough feedback on this tab! Please rate:
print report bad tab
1 2 3 4 5
I want to post or [tab]
guest
You may want to rate the tab now too:
select rating
Please do not post tabs as comments. Select "correction" instead!