Oops, an error
Loading. Please wait.

Mareo Tab

version 1
version 1

Whole song

19 views 1 this week
no commentswrite comment
1 2 3 4 5
please rate
add to favorites
launch autoscroll
font size
0
reset
how to read this tab
guitar tuner
Tab Pro tools
  • play this tab
  • loop segment
  • change instrument
  • show fretboard
  • metronome
Autoscroll
slow
fast
+/-
esc
set tempo
stop
Esta es el solo de la canción de mareo de los baba sónicos
Me decidí sacarlo yo por que los solos de las tablaturas
Que están tienen varios errores, celos dejo completo.

Solo:
1|-------------------------------------------------------------------|
2|----------------5-7-8-7-5-------5-7-8-7-5--------------------------|
3|----------5-4-5-----------4-2-4-----------4-3-2/4--4-2-0-----------|
4|2-4-5-4-2------------------------------------------------4-2--1---2|
5|----------------------------------------------------------------2--|
6|-------------------------------------------------------------------|

El punteo lo sigo trabajando pero yo siento que asi es

1|----------|
2|-17-19-20-|
3|----------|
4|----------|
5|----------|
6|----------|
se deja de tocar cuando dice: por que el recuerdo no es real.
y se toca:

1|----------|
2|-18-20-21-|
3|----------|
4|----------|
5|----------|
6|----------|

Nota:En la parte don de se encuentra /
también se puede tocar el H
eso ya es decisión Suya
suena igual de las 2 formas


Espero que les aya gustado
ya saben cualquier duda
comentario o corrección
a wasaraza@
todo será bienvenido
comments
We did not receive enough feedback on this tab! Please rate:
print report bad tab
1 2 3 4 5
I want to post or [tab]
guest
You may want to rate the tab now too:
select rating
Please do not post tabs as comments. Select "correction" instead!