Oops, an error
Loading. Please wait.

Zumba Tab

version 1
version 1

Whole song

64 views 1 this week
no commentswrite comment
1 2 3 4 5
please rate
add to favorites
launch autoscroll
font size
0
reset
how to read this tab
guitar tuner
Tab Pro tools
  • play this tab
  • loop segment
  • change instrument
  • show fretboard
  • metronome
Autoscroll
slow
fast
+/-
esc
set tempo
stop
INTRO
                                                                
e---------------------------------------------------------------------0-----
B---------------------------------------------------------------------0-----
G-------------0----------------------------------0--------------------0-----
D-2---5-2-0-2---2-0--------0---------2---5-2-0-2---2-0-------0-2-0----2-----           
A-------------------2-0------2-------------------------2-0---------2--2--1h2
E---------------------------------------------------------------------0-----

Em                     D          Em
Todos se van porque el viento los llama
Em                D         Em
y a su guarida no vuelven jamás
Em                  D           Em
van dados vuelta de frente al pasado
G          D        Em
mirando el tiempo pasar.


Em         G        D      Em
Ahha      ahhaa   ahaaa  ahaa
Em         G        D      Em
Ahha      ahhaa   ahaaa  ahaa

Em                    D           Em
Mientras que todos me creen tan errado
Em                  D         Em
veo el futuro a mis pies crepitar.
Em                  D        Em
Zumba en mi oído un insecto alado
G             D         Em
que ordena mi lengua vibrar.


Em   D      Em
Derivo y me hundo
Em    D      Em
viajo tan profundo
Em    D      G        D     Em
hasta que te vuelvo a ver pasar.
Em      D      Em
Caigo y vuelo abajo
Em     D       Em
bajo y no te alcanzo
Em        D      G    D     Em
siempre estás un paso más allá.

SOLO
e---------------------------------------------
B----------------------3--5--5-3-0-3--3-0-----
G------4-2-4-0-2-0-2----------------------2-0-
D-2--5----------------------------------------
A---------------------------------------------
E---------------------------------------------

(Esta parte que sigue puede ir sin acordes)

Em           G          D        Em
Atraída a mi luz, serpentea mi calor,
Em       D       Em
parpadea dándome vueltas.
Em          G           D       Em
Yo ya no me imagino que seas mi hogar
Em            D        Em
arrastrate mi inocente niebla.


Em   D      Em
Derivo y me hundo
Em    D      Em
viajo tan profundo
Em    D      G        D     Em
hasta que te vuelvo a ver pasar.
Em      D      Em
Caigo y vuelo abajo
Em     D       Em
bajo y no te alcanzo
Em        D      G    D     Em
siempre estás un paso más allá.

OUTRO
e------------------
B------------------
G------------------
D------------------
A---1h2--1h2---1h2-
E-0----------0-----

Hola a todos los usuarios del ATAME, estuve revisando las
transcripciones de esta canción y creo que ésta está bien 
mejorada, juzguen ustedes. Es mi primera transcripción, 
así que acepto cualquier tipo de sugerencia.
william_hds@
comments
We did not receive enough feedback on this tab! Please rate:
print report bad tab
1 2 3 4 5
I want to post or [tab]
guest
You may want to rate the tab now too:
select rating
Please do not post tabs as comments. Select "correction" instead!